  0
SECTION
  2
HEADER
  9
$ACADVER
  1
AC1015
  9
$ACADMAINTVER
 70
     6
  9
$DWGCODEPAGE
  3
ANSI_1254
  9
$INSBASE
 10
0.0
 20
0.0
 30
0.0
  9
$EXTMIN
 10
0.0
 20
0.0
 30
0.0
  9
$EXTMAX
 10
279.4
 20
215.9
 30
0.0
  9
$LIMMIN
 10
0.0
 20
0.0
  9
$LIMMAX
 10
279.4
 20
215.9
  9
$ORTHOMODE
 70
     0
  9
$REGENMODE
 70
     1
  9
$FILLMODE
 70
     1
  9
$QTEXTMODE
 70
     0
  9
$MIRRTEXT
 70
     1
  9
$LTSCALE
 40
1.0
  9
$ATTMODE
 70
     1
  9
$TEXTSIZE
 40
3.5
  9
$TRACEWID
 40
1.0
  9
$TEXTSTYLE
  7
Standard
  9
$CLAYER
  8
0
  9
$CELTYPE
  6
ByLayer
  9
$CECOLOR
 62
   256
  9
$CELTSCALE
 40
1.0
  9
$DISPSILH
 70
     0
  9
$DIMSCALE
 40
1.0
  9
$DIMASZ
 40
3.5
  9
$DIMEXO
 40
1.0
  9
$DIMDLI
 40
3.75
  9
$DIMRND
 40
0.0
  9
$DIMDLE
 40
0.0
  9
$DIMEXE
 40
1.0
  9
$DIMTP
 40
0.0
  9
$DIMTM
 40
0.0
  9
$DIMTXT
 40
3.5
  9
$DIMCEN
 40
2.5
  9
$DIMTSZ
 40
0.0
  9
$DIMTOL
 70
     0
  9
$DIMLIM
 70
     0
  9
$DIMTIH
 70
     1
  9
$DIMTOH
 70
     1
  9
$DIMSE1
 70
     0
  9
$DIMSE2
 70
     0
  9
$DIMTAD
 70
     1
  9
$DIMZIN
 70
     0
  9
$DIMBLK
  1

  9
$DIMASO
 70
     1
  9
$DIMSHO
 70
     1
  9
$DIMPOST
  1

  9
$DIMAPOST
  1

  9
$DIMALT
 70
     0
  9
$DIMALTD
 70
     3
  9
$DIMALTF
 40
0.0393700787
  9
$DIMLFAC
 40
1.0
  9
$DIMTOFL
 70
     1
  9
$DIMTVP
 40
0.0
  9
$DIMTIX
 70
     0
  9
$DIMSOXD
 70
     0
  9
$DIMSAH
 70
     0
  9
$DIMBLK1
  1

  9
$DIMBLK2
  1

  9
$DIMSTYLE
  2
ISO-25
  9
$DIMCLRD
 70
     0
  9
$DIMCLRE
 70
     0
  9
$DIMCLRT
 70
     0
  9
$DIMTFAC
 40
1.0
  9
$DIMGAP
 40
1.524
  9
$DIMJUST
 70
     0
  9
$DIMSD1
 70
     0
  9
$DIMSD2
 70
     0
  9
$DIMTOLJ
 70
     0
  9
$DIMTZIN
 70
     0
  9
$DIMALTZ
 70
     0
  9
$DIMALTTZ
 70
     0
  9
$DIMUPT
 70
     0
  9
$DIMDEC
 70
     2
  9
$DIMTDEC
 70
     2
  9
$DIMALTU
 70
     2
  9
$DIMALTTD
 70
     3
  9
$DIMTXSTY
  7
Standard
  9
$DIMAUNIT
 70
     0
  9
$DIMADEC
 70
     2
  9
$DIMALTRND
 40
0.0
  9
$DIMAZIN
 70
     0
  9
$DIMDSEP
 70
    44
  9
$DIMATFIT
 70
     3
  9
$DIMFRAC
 70
     0
  9
$DIMLDRBLK
  1

  9
$DIMLUNIT
 70
     2
  9
$DIMLWD
 70
    -2
  9
$DIMLWE
 70
    -2
  9
$DIMTMOVE
 70
     0
  9
$LUNITS
 70
     2
  9
$LUPREC
 70
     2
  9
$SKETCHINC
 40
1.0
  9
$FILLETRAD
 40
10.0
  9
$AUNITS
 70
     0
  9
$AUPREC
 70
     2
  9
$MENU
  1
.
  9
$ELEVATION
 40
0.0
  9
$PELEVATION
 40
0.0
  9
$THICKNESS
 40
0.0
  9
$LIMCHECK
 70
     0
  9
$CHAMFERA
 40
0.0
  9
$CHAMFERB
 40
0.0
  9
$CHAMFERC
 40
0.0
  9
$CHAMFERD
 40
0.0
  9
$SKPOLY
 70
     0
  9
$TDCREATE
 40
2460346.670812813
  9
$TDUCREATE
 40
2460346.545812813
  9
$TDUPDATE
 40
2460346.670812998
  9
$TDUUPDATE
 40
2460346.545812998
  9
$TDINDWG
 40
0.0000000116
  9
$TDUSRTIMER
 40
0.0000000116
  9
$USRTIMER
 70
     1
  9
$ANGBASE
 50
0.0
  9
$ANGDIR
 70
     0
  9
$PDMODE
 70
     0
  9
$PDSIZE
 40
-1.0
  9
$PLINEWID
 40
0.0
  9
$SPLFRAME
 70
     0
  9
$SPLINETYPE
 70
     6
  9
$SPLINESEGS
 70
     8
  9
$HANDSEED
  5
129
  9
$SURFTAB1
 70
     6
  9
$SURFTAB2
 70
     6
  9
$SURFTYPE
 70
     6
  9
$SURFU
 70
     6
  9
$SURFV
 70
     6
  9
$UCSBASE
  2

  9
$UCSNAME
  2

  9
$UCSORG
 10
0.0
 20
0.0
 30
0.0
  9
$UCSXDIR
 10
1.0
 20
0.0
 30
0.0
  9
$UCSYDIR
 10
0.0
 20
1.0
 30
0.0
  9
$UCSORTHOREF
  2

  9
$UCSORTHOVIEW
 70
     0
  9
$UCSORGTOP
 10
0.0
 20
0.0
 30
0.0
  9
$UCSORGBOTTOM
 10
0.0
 20
0.0
 30
0.0
  9
$UCSORGLEFT
 10
0.0
 20
0.0
 30
0.0
  9
$UCSORGRIGHT
 10
0.0
 20
0.0
 30
0.0
  9
$UCSORGFRONT
 10
0.0
 20
0.0
 30
0.0
  9
$UCSORGBACK
 10
0.0
 20
0.0
 30
0.0
  9
$PUCSBASE
  2

  9
$PUCSNAME
  2

  9
$PUCSORG
 10
0.0
 20
0.0
 30
0.0
  9
$PUCSXDIR
 10
1.0
 20
0.0
 30
0.0
  9
$PUCSYDIR
 10
0.0
 20
1.0
 30
0.0
  9
$PUCSORTHOREF
  2

  9
$PUCSORTHOVIEW
 70
     0
  9
$PUCSORGTOP
 10
0.0
 20
0.0
 30
0.0
  9
$PUCSORGBOTTOM
 10
0.0
 20
0.0
 30
0.0
  9
$PUCSORGLEFT
 10
0.0
 20
0.0
 30
0.0
  9
$PUCSORGRIGHT
 10
0.0
 20
0.0
 30
0.0
  9
$PUCSORGFRONT
 10
0.0
 20
0.0
 30
0.0
  9
$PUCSORGBACK
 10
0.0
 20
0.0
 30
0.0
  9
$USERI1
 70
     0
  9
$USERI2
 70
     0
  9
$USERI3
 70
     0
  9
$USERI4
 70
     0
  9
$USERI5
 70
     0
  9
$USERR1
 40
0.0
  9
$USERR2
 40
0.0
  9
$USERR3
 40
0.0
  9
$USERR4
 40
0.0
  9
$USERR5
 40
0.0
  9
$WORLDVIEW
 70
     1
  9
$SHADEDGE
 70
     3
  9
$SHADEDIF
 70
    70
  9
$TILEMODE
 70
     1
  9
$MAXACTVP
 70
    64
  9
$PINSBASE
 10
0.0
 20
0.0
 30
0.0
  9
$PLIMCHECK
 70
     0
  9
$PEXTMIN
 10
1.0000000000E+20
 20
1.0000000000E+20
 30
1.0000000000E+20
  9
$PEXTMAX
 10
-1.0000000000E+20
 20
-1.0000000000E+20
 30
-1.0000000000E+20
  9
$PLIMMIN
 10
0.0
 20
0.0
  9
$PLIMMAX
 10
420.0
 20
297.0
  9
$UNITMODE
 70
     0
  9
$VISRETAIN
 70
     1
  9
$PLINEGEN
 70
     0
  9
$PSLTSCALE
 70
     1
  9
$TREEDEPTH
 70
  3020
  9
$CMLSTYLE
  2
Standard
  9
$CMLJUST
 70
     0
  9
$CMLSCALE
 40
20.0
  9
$PROXYGRAPHICS
 70
     1
  9
$MEASUREMENT
 70
     1
  9
$CELWEIGHT
370
    -1
  9
$ENDCAPS
280
     0
  9
$JOINSTYLE
280
     0
  9
$LWDISPLAY
290
     1
  9
$INSUNITS
 70
     4
  9
$HYPERLINKBASE
  1

  9
$STYLESHEET
  1

  9
$XEDIT
290
     1
  9
$CEPSNTYPE
380
     0
  9
$PSTYLEMODE
290
     1
  9
$FINGERPRINTGUID
  2
{095386d8-a5c8-40d1-a602-9cde870a73a9}
  9
$VERSIONGUID
  2
{FAEB1C32-E019-11D5-929B-00C0DF256EC4}
  9
$EXTNAMES
290
     1
  9
$PSVPSCALE
 40
0.0
  9
$OLESTARTUP
290
     0
  0
ENDSEC
  0
SECTION
  2
CLASSES
  0
CLASS
  1
ACDBDICTIONARYWDFLT
  2
AcDbDictionaryWithDefault
  3
ObjectDBX Classes
 90
        0
280
     0
281
     0
  0
CLASS
  1
VISUALSTYLE
  2
AcDbVisualStyle
  3
ObjectDBX Classes
 90
     4095
280
     0
281
     0
  0
CLASS
  1
MATERIAL
  2
AcDbMaterial
  3
ObjectDBX Classes
 90
     1153
280
     0
281
     0
  0
CLASS
  1
SCALE
  2
AcDbScale
  3
ObjectDBX Classes
 90
     1153
280
     0
281
     0
  0
CLASS
  1
TABLESTYLE
  2
AcDbTableStyle
  3
ObjectDBX Classes
 90
     4095
280
     0
281
     0
  0
CLASS
  1
MLEADERSTYLE
  2
AcDbMLeaderStyle
  3
ACDB_MLEADERSTYLE_CLASS
 90
     4095
280
     0
281
     0
  0
CLASS
  1
SUN
  2
AcDbSun
  3
SCENEOE
 90
     1153
280
     0
281
     0
  0
CLASS
  1
ACDBPLACEHOLDER
  2
AcDbPlaceHolder
  3
ObjectDBX Classes
 90
        0
280
     0
281
     0
  0
CLASS
  1
LAYOUT
  2
AcDbLayout
  3
ObjectDBX Classes
 90
        0
280
     0
281
     0
  0
ENDSEC
  0
SECTION
  2
TABLES
  0
TABLE
  2
VPORT
  5
8
330
0
100
AcDbSymbolTable
 70
     1
  0
VPORT
  5
29
330
8
100
AcDbSymbolTableRecord
100
AcDbViewportTableRecord
  2
*Active
 70
     0
 10
0.0
 20
0.0
 11
1.0
 21
1.0
 12
139.7
 22
107.95
 13
0.0
 23
0.0
 14
10.0
 24
10.0
 15
10.0
 25
10.0
 16
0.0
 26
0.0
 36
1.0
 17
0.0
 27
0.0
 37
0.0
 40
215.9
 41
1.2941176471
 42
50.0
 43
0.0
 44
0.0
 50
0.0
 51
0.0
 71
     0
 72
  2000
 73
     1
 74
     3
 75
     0
 76
     0
 77
     0
 78
     0
281
     0
 65
     1
110
0.0
120
0.0
130
0.0
111
1.0
121
0.0
131
0.0
112
0.0
122
1.0
132
0.0
 79
     0
146
0.0
  0
ENDTAB
  0
TABLE
  2
LTYPE
  5
5
330
0
100
AcDbSymbolTable
 70
     6
  0
LTYPE
  5
14
330
5
100
AcDbSymbolTableRecord
100
AcDbLinetypeTableRecord
  2
ByBlock
 70
     0
  3

 72
    65
 73
     0
 40
0.0
  0
LTYPE
  5
15
330
5
100
AcDbSymbolTableRecord
100
AcDbLinetypeTableRecord
  2
ByLayer
 70
     0
  3

 72
    65
 73
     0
 40
0.0
  0
LTYPE
  5
16
330
5
100
AcDbSymbolTableRecord
100
AcDbLinetypeTableRecord
  2
Continuous
 70
     0
  3
Solid line
 72
    65
 73
     0
 40
0.0
  0
LTYPE
  5
6E
330
5
100
AcDbSymbolTableRecord
100
AcDbLinetypeTableRecord
  2
HIDDEN
 70
     0
  3
Hidden __ __ __ __ __ __ __ __ __ __ __ __ __ __
 72
    65
 73
     2
 40
1.905
 49
1.27
 74
     0
 49
-0.635
 74
     0
  0
LTYPE
  5
6F
330
5
100
AcDbSymbolTableRecord
100
AcDbLinetypeTableRecord
  2
PHANTOM
 70
     0
  3
Phantom ______  __  __  ______  __  __  ______
 72
    65
 73
     6
 40
12.7
 49
6.35
 74
     0
 49
-1.27
 74
     0
 49
1.27
 74
     0
 49
-1.27
 74
     0
 49
1.27
 74
     0
 49
-1.27
 74
     0
  0
LTYPE
  5
70
330
5
100
AcDbSymbolTableRecord
100
AcDbLinetypeTableRecord
  2
CENTER
 70
     0
  3
Center ____ _ ____ _ ____ _ ____ _ ____ _ ____
 72
    65
 73
     4
 40
10.16
 49
6.35
 74
     0
 49
-1.27
 74
     0
 49
1.27
 74
     0
 49
-1.27
 74
     0
  0
LTYPE
  5
71
330
5
100
AcDbSymbolTableRecord
100
AcDbLinetypeTableRecord
  2
CENTERX2
 70
     0
  3
Center (2x) ________  __  ________  __  _____
 72
    65
 73
     4
 40
20.32
 49
12.7
 74
     0
 49
-2.54
 74
     0
 49
2.54
 74
     0
 49
-2.54
 74
     0
  0
LTYPE
  5
72
330
5
100
AcDbSymbolTableRecord
100
AcDbLinetypeTableRecord
  2
DOT2
 70
     0
  3
Dot (.5x) ........................................
 72
    65
 73
     2
 40
0.635
 49
0.0
 74
     0
 49
-0.635
 74
     0
  0
ENDTAB
  0
TABLE
  2
LAYER
  5
2
330
0
100
AcDbSymbolTable
 70
    17
  0
LAYER
  5
10
330
2
100
AcDbSymbolTableRecord
100
AcDbLayerTableRecord
  2
0
 70
     0
 62
     7
  6
Continuous
370
    -3
390
F
  0
LAYER
  5
73
330
2
100
AcDbSymbolTableRecord
100
AcDbLayerTableRecord
  2
FORMAT
 70
     0
 62
     7
  6
Continuous
370
    -3
390
F
  0
LAYER
  5
74
330
2
100
AcDbSymbolTableRecord
100
AcDbLayerTableRecord
  2
YARDIMCI_GEOMETRI
 70
     0
 62
    -6
  6
Continuous
290
     0
370
    -3
390
F
  0
LAYER
  5
75
330
2
100
AcDbSymbolTableRecord
100
AcDbLayerTableRecord
  2
SAYFA_CERCEVESI
 70
     0
 62
     7
  6
Continuous
370
    25
390
F
  0
LAYER
  5
76
330
2
100
AcDbSymbolTableRecord
100
AcDbLayerTableRecord
  2
ANTET
 70
     0
 62
     7
  6
Continuous
370
    -3
390
F
  0
LAYER
  5
77
330
2
100
AcDbSymbolTableRecord
100
AcDbLayerTableRecord
  2
OLCU
 70
     0
 62
   150
  6
Continuous
370
    -3
390
F
  0
LAYER
  5
78
330
2
100
AcDbSymbolTableRecord
100
AcDbLayerTableRecord
  2
METIN
 70
     0
 62
    96
  6
Continuous
370
    -3
390
F
  0
LAYER
  5
79
330
2
100
AcDbSymbolTableRecord
100
AcDbLayerTableRecord
  2
BALON
 70
     0
 62
     5
  6
Continuous
370
    -3
390
F
  0
LAYER
  5
7A
330
2
100
AcDbSymbolTableRecord
100
AcDbLayerTableRecord
  2
VURGU
 70
     0
 62
     7
  6
Continuous
370
    -3
390
F
  0
LAYER
  5
7B
330
2
100
AcDbSymbolTableRecord
100
AcDbLayerTableRecord
  2
SILIK
 70
     0
 62
     7
  6
Continuous
370
    -3
390
F
  0
LAYER
  5
7C
330
2
100
AcDbSymbolTableRecord
100
AcDbLayerTableRecord
  2
MODEL
 70
     0
 62
     7
  6
Continuous
370
    -3
390
F
  0
LAYER
  5
7D
330
2
100
AcDbSymbolTableRecord
100
AcDbLayerTableRecord
  2
DETAYLANDıRMA
 70
     0
 62
   190
  6
Continuous
370
    -3
390
F
  0
LAYER
  5
7E
330
2
100
AcDbSymbolTableRecord
100
AcDbLayerTableRecord
  2
TOLERANS
 70
     0
 62
   230
  6
Continuous
370
    -3
390
F
  0
LAYER
  5
7F
330
2
100
AcDbSymbolTableRecord
100
AcDbLayerTableRecord
  2
MERKEZ_CIZGILERI
 70
     0
 62
    30
  6
Continuous
370
    -3
390
F
  0
LAYER
  5
80
330
2
100
AcDbSymbolTableRecord
100
AcDbLayerTableRecord
  2
KESIT-DETAY_CIZGILERI
 70
     0
 62
     7
  6
Continuous
370
    -3
390
F
  0
LAYER
  5
81
330
2
100
AcDbSymbolTableRecord
100
AcDbLayerTableRecord
  2
\U+041E\U+0421\U+0415\U+0412\U+042B\U+0415
 70
     0
 62
     7
  6
Continuous
370
    -3
390
F
  0
LAYER
  5
82
330
2
100
AcDbSymbolTableRecord
100
AcDbLayerTableRecord
  2
\U+0412\U+041E\U+0414\U+042F\U+041D\U+042B\U+0415_\U+0417\U+041D\U+0410\U+041A\U+0418
 70
     0
 62
    11
  6
Continuous
370
    -3
390
F
  0
ENDTAB
  0
TABLE
  2
STYLE
  5
3
330
0
100
AcDbSymbolTable
 70
     1
  0
STYLE
  5
11
330
3
100
AcDbSymbolTableRecord
100
AcDbTextStyleTableRecord
  2
Standard
 70
     0
 40
0.0
 41
1.0
 50
0.0
 71
     0
 42
3.5
  3
txt
  4

  0
ENDTAB
  0
TABLE
  2
VIEW
  5
6
330
0
100
AcDbSymbolTable
 70
     0
  0
ENDTAB
  0
TABLE
  2
UCS
  5
7
330
0
100
AcDbSymbolTable
 70
     0
  0
ENDTAB
  0
TABLE
  2
APPID
  5
9
330
0
100
AcDbSymbolTable
 70
     1
  0
APPID
  5
12
330
9
100
AcDbSymbolTableRecord
100
AcDbRegAppTableRecord
  2
ACAD
 70
     0
  0
ENDTAB
  0
TABLE
  2
DIMSTYLE
  5
A
330
0
100
AcDbSymbolTable
 70
     1
100
AcDbDimStyleTable
  0
DIMSTYLE
105
27
330
A
100
AcDbSymbolTableRecord
100
AcDbDimStyleTableRecord
  2
ISO-25
 70
     0
 41
2.5
 42
0.625
 43
3.75
 44
1.25
 73
     0
 74
     0
 77
     1
 78
     8
140
2.5
141
2.5
143
0.0393700787
147
0.625
171
     3
172
     1
178
     0
271
     2
272
     2
274
     3
278
    44
283
     0
284
     8
340
11
  0
ENDTAB
  0
TABLE
  2
BLOCK_RECORD
  5
1
330
0
100
AcDbSymbolTable
 70
     4
  0
BLOCK_RECORD
  5
1F
330
1
100
AcDbSymbolTableRecord
100
AcDbBlockTableRecord
  2
*Model_Space
340
22
  0
BLOCK_RECORD
  5
1B
330
1
100
AcDbSymbolTableRecord
100
AcDbBlockTableRecord
  2
*Paper_Space
340
1E
  0
BLOCK_RECORD
  5
23
330
1
100
AcDbSymbolTableRecord
100
AcDbBlockTableRecord
  2
*Paper_Space0
340
26
  0
BLOCK_RECORD
  5
8C
330
1
100
AcDbSymbolTableRecord
100
AcDbBlockTableRecord
  2
SW_CENTERMARKSYMBOL_0
340
0
102
{BLKREFS
331
97
102
}
  0
BLOCK_RECORD
  5
C6
330
1
100
AcDbSymbolTableRecord
100
AcDbBlockTableRecord
  2
SW_CENTERMARKSYMBOL_1
340
0
102
{BLKREFS
331
D1
102
}
  0
BLOCK_RECORD
  5
D2
330
1
100
AcDbSymbolTableRecord
100
AcDbBlockTableRecord
  2
SW_CENTERMARKSYMBOL_2
340
0
102
{BLKREFS
331
DD
102
}
  0
ENDTAB
  0
ENDSEC
  0
SECTION
  2
BLOCKS
  0
BLOCK
  5
20
330
1F
100
AcDbEntity
  8
0
100
AcDbBlockBegin
  2
*Model_Space
 70
     0
 10
0.0
 20
0.0
 30
0.0
  3
*Model_Space
  1

  0
ENDBLK
  5
21
330
1F
100
AcDbEntity
  8
0
100
AcDbBlockEnd
  0
BLOCK
  5
1C
330
1B
100
AcDbEntity
 67
     1
  8
0
100
AcDbBlockBegin
  2
*Paper_Space
 70
     0
 10
0.0
 20
0.0
 30
0.0
  3
*Paper_Space
  1

  0
ENDBLK
  5
1D
330
1B
100
AcDbEntity
 67
     1
  8
0
100
AcDbBlockEnd
  0
BLOCK
  5
24
330
23
100
AcDbEntity
  8
0
100
AcDbBlockBegin
  2
*Paper_Space0
 70
     0
 10
0.0
 20
0.0
 30
0.0
  3
*Paper_Space0
  1

  0
ENDBLK
  5
25
330
23
100
AcDbEntity
  8
0
100
AcDbBlockEnd
  0
BLOCK
  5
8D
330
8C
100
AcDbEntity
  8
0
100
AcDbBlockBegin
  2
SW_CENTERMARKSYMBOL_0
 70
     0
 10
0.0
 20
0.0
 30
0.0
  3
SW_CENTERMARKSYMBOL_0
  1

  0
LINE
  5
8F
330
8C
100
AcDbEntity
  8
FORMAT
 62
     0
100
AcDbLine
 10
0.0
 20
0.0
 30
0.0
 11
0.0
 21
2.5
 31
0.0
  0
LINE
  5
90
330
8C
100
AcDbEntity
  8
FORMAT
 62
     0
100
AcDbLine
 10
0.0
 20
0.0
 30
0.0
 11
-2.5
 21
0.0
 31
0.0
  0
LINE
  5
91
330
8C
100
AcDbEntity
  8
FORMAT
 62
     0
100
AcDbLine
 10
0.0
 20
0.0
 30
0.0
 11
0.0
 21
-2.5
 31
0.0
  0
LINE
  5
92
330
8C
100
AcDbEntity
  8
FORMAT
 62
     0
100
AcDbLine
 10
0.0
 20
0.0
 30
0.0
 11
2.5
 21
0.0
 31
0.0
  0
LINE
  5
93
330
8C
100
AcDbEntity
  8
FORMAT
 62
     0
100
AcDbLine
 10
0.0
 20
5.0
 30
0.0
 11
0.0
 21
80.5
 31
0.0
  0
LINE
  5
94
330
8C
100
AcDbEntity
  8
FORMAT
 62
     0
100
AcDbLine
 10
-5.0
 20
0.0
 30
0.0
 11
-80.5
 21
0.0
 31
0.0
  0
LINE
  5
95
330
8C
100
AcDbEntity
  8
FORMAT
 62
     0
100
AcDbLine
 10
0.0
 20
-5.0
 30
0.0
 11
0.0
 21
-80.5
 31
0.0
  0
LINE
  5
96
330
8C
100
AcDbEntity
  8
FORMAT
 62
     0
100
AcDbLine
 10
5.0
 20
0.0
 30
0.0
 11
80.5
 21
0.0
 31
0.0
  0
ENDBLK
  5
8E
330
8C
100
AcDbEntity
  8
0
100
AcDbBlockEnd
  0
BLOCK
  5
C7
330
C6
100
AcDbEntity
  8
0
100
AcDbBlockBegin
  2
SW_CENTERMARKSYMBOL_1
 70
     0
 10
0.0
 20
0.0
 30
0.0
  3
SW_CENTERMARKSYMBOL_1
  1

  0
LINE
  5
C9
330
C6
100
AcDbEntity
  8
FORMAT
 62
     0
100
AcDbLine
 10
0.0
 20
0.0
 30
0.0
 11
0.0
 21
2.5
 31
0.0
  0
LINE
  5
CA
330
C6
100
AcDbEntity
  8
FORMAT
 62
     0
100
AcDbLine
 10
0.0
 20
0.0
 30
0.0
 11
-2.5
 21
0.0
 31
0.0
  0
LINE
  5
CB
330
C6
100
AcDbEntity
  8
FORMAT
 62
     0
100
AcDbLine
 10
0.0
 20
0.0
 30
0.0
 11
0.0
 21
-2.5
 31
0.0
  0
LINE
  5
CC
330
C6
100
AcDbEntity
  8
FORMAT
 62
     0
100
AcDbLine
 10
0.0
 20
0.0
 30
0.0
 11
2.5
 21
0.0
 31
0.0
  0
LINE
  5
CD
330
C6
100
AcDbEntity
  8
FORMAT
 62
     0
100
AcDbLine
 10
0.0
 20
5.0
 30
0.0
 11
0.0
 21
9.5
 31
0.0
  0
LINE
  5
CE
330
C6
100
AcDbEntity
  8
FORMAT
 62
     0
100
AcDbLine
 10
-5.0
 20
0.0
 30
0.0
 11
-9.5
 21
0.0
 31
0.0
  0
LINE
  5
CF
330
C6
100
AcDbEntity
  8
FORMAT
 62
     0
100
AcDbLine
 10
0.0
 20
-5.0
 30
0.0
 11
0.0
 21
-9.5
 31
0.0
  0
LINE
  5
D0
330
C6
100
AcDbEntity
  8
FORMAT
 62
     0
100
AcDbLine
 10
5.0
 20
0.0
 30
0.0
 11
9.5
 21
0.0
 31
0.0
  0
ENDBLK
  5
C8
330
C6
100
AcDbEntity
  8
0
100
AcDbBlockEnd
  0
BLOCK
  5
D3
330
D2
100
AcDbEntity
  8
0
100
AcDbBlockBegin
  2
SW_CENTERMARKSYMBOL_2
 70
     0
 10
0.0
 20
0.0
 30
0.0
  3
SW_CENTERMARKSYMBOL_2
  1

  0
LINE
  5
D5
330
D2
100
AcDbEntity
  8
FORMAT
 62
     0
100
AcDbLine
 10
0.0
 20
0.0
 30
0.0
 11
0.0
 21
2.5
 31
0.0
  0
LINE
  5
D6
330
D2
100
AcDbEntity
  8
FORMAT
 62
     0
100
AcDbLine
 10
0.0
 20
0.0
 30
0.0
 11
-2.5
 21
0.0
 31
0.0
  0
LINE
  5
D7
330
D2
100
AcDbEntity
  8
FORMAT
 62
     0
100
AcDbLine
 10
0.0
 20
0.0
 30
0.0
 11
0.0
 21
-2.5
 31
0.0
  0
LINE
  5
D8
330
D2
100
AcDbEntity
  8
FORMAT
 62
     0
100
AcDbLine
 10
0.0
 20
0.0
 30
0.0
 11
2.5
 21
0.0
 31
0.0
  0
LINE
  5
D9
330
D2
100
AcDbEntity
  8
FORMAT
 62
     0
100
AcDbLine
 10
0.0
 20
5.0
 30
0.0
 11
0.0
 21
9.5
 31
0.0
  0
LINE
  5
DA
330
D2
100
AcDbEntity
  8
FORMAT
 62
     0
100
AcDbLine
 10
-5.0
 20
0.0
 30
0.0
 11
-9.5
 21
0.0
 31
0.0
  0
LINE
  5
DB
330
D2
100
AcDbEntity
  8
FORMAT
 62
     0
100
AcDbLine
 10
0.0
 20
-5.0
 30
0.0
 11
0.0
 21
-9.5
 31
0.0
  0
LINE
  5
DC
330
D2
100
AcDbEntity
  8
FORMAT
 62
     0
100
AcDbLine
 10
5.0
 20
0.0
 30
0.0
 11
9.5
 21
0.0
 31
0.0
  0
ENDBLK
  5
D4
330
D2
100
AcDbEntity
  8
0
100
AcDbBlockEnd
  0
ENDSEC
  0
SECTION
  2
ENTITIES
  0
LINE
  5
83
330
1F
100
AcDbEntity
  8
0
  6
Continuous
 62
     7
370
    25
100
AcDbLine
 10
129.1701403815
 20
39.9881156429
 30
0.0
 11
129.1701403815
 21
22.1754170122
 31
0.0
  0
LINE
  5
84
330
1F
100
AcDbEntity
  8
0
  6
Continuous
 62
     7
370
    25
100
AcDbLine
 10
143.1701403815
 20
22.1754170122
 30
0.0
 11
143.1701403815
 21
39.9899241074
 31
0.0
  0
CIRCLE
  5
85
330
1F
100
AcDbEntity
  8
0
  6
Continuous
 62
     7
370
    25
100
AcDbCircle
 10
136.1701403815
 20
117.6754170122
 30
0.0
 40
78.0
  0
CIRCLE
  5
86
330
1F
100
AcDbEntity
  8
0
  6
Continuous
 62
     7
370
    25
100
AcDbCircle
 10
136.1701403815
 20
117.6754170122
 30
0.0
 40
62.5
  0
LINE
  5
87
330
1F
100
AcDbEntity
  8
0
  6
Continuous
 62
     7
370
    25
100
AcDbLine
 10
136.1701403815
 20
22.1754170122
 30
0.0
 11
143.1701403815
 21
22.1754170122
 31
0.0
  0
LINE
  5
88
330
1F
100
AcDbEntity
  8
0
  6
Continuous
 62
     7
370
    25
100
AcDbLine
 10
129.1701403815
 20
22.1754170122
 30
0.0
 11
136.1701403815
 21
22.1754170122
 31
0.0
  0
CIRCLE
  5
89
330
1F
100
AcDbEntity
  8
0
  6
Continuous
 62
     7
370
    25
100
AcDbCircle
 10
136.1701403815
 20
117.6754170122
 30
0.0
 40
61.21624372329524
  0
CIRCLE
  5
8A
330
1F
100
AcDbEntity
  8
0
  6
Continuous
 62
     7
370
    25
100
AcDbCircle
 10
136.1701403815
 20
117.6754170122
 30
0.0
 40
32.78375627670476
  0
CIRCLE
  5
8B
330
1F
100
AcDbEntity
  8
0
  6
Continuous
 62
     7
370
    25
100
AcDbCircle
 10
136.1701403815
 20
117.6754170122
 30
0.0
 40
31.5
  0
INSERT
  5
97
330
1F
100
AcDbEntity
  8
FORMAT
 62
     7
100
AcDbBlockReference
  2
SW_CENTERMARKSYMBOL_0
 10
136.1701403815
 20
117.6754170122
 30
0.0
  0
ARC
  5
98
330
1F
100
AcDbEntity
  8
0
  6
Continuous
 62
     7
370
    25
100
AcDbCircle
 10
-90.6603669051
 20
193.6754170122
 30
0.0
 40
2.000000000000007
100
AcDbArc
 50
20.9848978359
 51
90.0
  0
ARC
  5
99
330
1F
100
AcDbEntity
  8
0
  6
Continuous
 62
     7
370
    25
100
AcDbCircle
 10
-90.6603669051
 20
41.6754170122
 30
0.0
 40
2.000000000000014
100
AcDbArc
 50
270.0
 51
339.0151021641
  0
LINE
  5
9A
330
1F
100
AcDbEntity
  8
0
  6
Continuous
 62
     7
370
    25
100
AcDbLine
 10
-90.6603669051
 20
195.6754170122
 30
0.0
 11
-164.2854168658
 21
195.6754170122
 31
0.0
  0
LINE
  5
9B
330
1F
100
AcDbEntity
  8
0
  6
Continuous
 62
     7
370
    25
100
AcDbLine
 10
-149.3070826352
 20
39.6754170122
 30
0.0
 11
-90.6603669051
 21
39.6754170122
 31
0.0
  0
LINE
  5
9C
330
1F
100
AcDbEntity
  8
0
  6
Continuous
 62
     7
370
    25
100
AcDbLine
 10
-164.2854168658
 20
39.6754170122
 30
0.0
 11
-163.2854168658
 21
39.6754170122
 31
0.0
  0
LINE
  5
9D
330
1F
100
AcDbEntity
  8
0
  6
Continuous
 62
     7
370
    25
100
AcDbLine
 10
-88.793017198
 20
40.9591732889
 30
0.0
 11
-75.7778165335
 21
74.8916607355
 31
0.0
  0
LINE
  5
9E
330
1F
100
AcDbEntity
  8
0
  6
Continuous
 62
     7
370
    25
100
AcDbLine
 10
-75.7778165335
 20
160.4591732889
 30
0.0
 11
-88.793017198
 21
194.3916607355
 31
0.0
  0
ARC
  5
9F
330
1F
100
AcDbEntity
  8
0
  6
Continuous
 62
     7
370
    25
100
AcDbCircle
 10
-73.9104668264
 20
161.1754170122
 30
0.0
 40
2.0
100
AcDbArc
 50
200.9848978359
 51
270.0
  0
ARC
  5
A0
330
1F
100
AcDbEntity
  8
0
  6
Continuous
 62
     7
370
    25
100
AcDbCircle
 10
-73.9104668264
 20
74.1754170122
 30
0.0
 40
1.999999999999986
100
AcDbArc
 50
90.0
 51
159.0151021641
  0
LINE
  5
A1
330
1F
100
AcDbEntity
  8
0
  6
Continuous
 62
     7
370
    25
100
AcDbLine
 10
-8.2854168658
 20
159.1754170122
 30
0.0
 11
-73.9104668264
 21
159.1754170122
 31
0.0
  0
LINE
  5
A2
330
1F
100
AcDbEntity
  8
0
  6
Continuous
 62
     7
370
    25
100
AcDbLine
 10
-9.3045619888
 20
76.1754170122
 30
0.0
 11
-8.2854168658
 21
76.1754170122
 31
0.0
  0
LINE
  5
A3
330
1F
100
AcDbEntity
  8
0
  6
Continuous
 62
     7
370
    25
100
AcDbLine
 10
-73.9104668264
 20
76.1754170122
 30
0.0
 11
-23.2854168658
 21
76.1754170122
 31
0.0
  0
LINE
  5
A4
330
1F
100
AcDbEntity
  8
0
  6
Continuous
 62
     7
370
    25
100
AcDbLine
 10
-23.2854168658
 20
76.1754170122
 30
0.0
 11
-23.2854168658
 21
61.1754170122
 31
0.0
  0
LINE
  5
A5
330
1F
100
AcDbEntity
  8
0
  6
Continuous
 62
     7
370
    25
100
AcDbLine
 10
-9.2854168658
 20
61.1754170122
 30
0.0
 11
-9.2854168658
 21
76.178633637
 31
0.0
  0
LINE
  5
A6
330
1F
100
AcDbEntity
  8
0
  6
Continuous
 62
     7
370
    25
100
AcDbLine
 10
-163.2854168658
 20
39.6754170122
 30
0.0
 11
-163.2854168658
 21
22.1754170122
 31
0.0
  0
LINE
  5
A7
330
1F
100
AcDbEntity
  8
0
  6
Continuous
 62
     7
370
    25
100
AcDbLine
 10
-149.2854168658
 20
22.1754170122
 30
0.0
 11
-149.2854168658
 21
39.6773557417
 31
0.0
  0
LINE
  5
A8
330
1F
100
AcDbEntity
  8
0
  6
Continuous
 62
     7
370
    25
100
AcDbLine
 10
-164.2854168658
 20
195.6754170122
 30
0.0
 11
-164.2854168658
 21
39.6754170122
 31
0.0
  0
SPLINE
  5
A9
330
1F
100
AcDbEntity
  8
0
  6
Continuous
 62
     7
370
    25
100
AcDbSpline
210
0.0
220
0.0
230
1.0
 70
     8
 71
     3
 72
    26
 73
    22
 74
     0
 42
0.00000001
 43
0.00000001
 40
0.0
 40
0.0
 40
0.0
 40
0.0
 40
0.0180593149905019
 40
0.0723813859314284
 40
0.1250866164758171
 40
0.179312454235438
 40
0.2321624112924697
 40
0.2865361596456582
 40
0.3395326386463556
 40
0.3940699865195466
 40
0.4469857272379606
 40
0.5014467883889455
 40
0.554179311602508
 40
0.6084417739845803
 40
0.6611749973785032
 40
0.715427166626743
 40
0.768343251871883
 40
0.8227886112510424
 40
0.8757850769618629
 40
0.9303264783145735
 40
1.0
 40
1.0
 40
1.0
 40
1.0
 10
-149.3070826352009
 20
39.6773570650095
 30
0.0
 10
-149.3011803682086
 20
39.67682865709951
 30
0.0
 10
-149.277524196019
 20
39.6747108083948
 30
0.0
 10
-149.4390829552887
 20
39.68920906320091
 30
0.0
 10
-149.7906899454207
 20
39.71954531543285
 30
0.0
 10
-150.3344369105582
 20
39.76340164038582
 30
0.0
 10
-151.0484891906018
 20
39.81515124040347
 30
0.0
 10
-151.9058208846426
 20
39.86863925734324
 30
0.0
 10
-152.8964800729939
 20
39.91857796269797
 30
0.0
 10
-153.9750067688573
 20
39.95850300075243
 30
0.0
 10
-155.1291837399094
 20
39.98448719256924
 30
0.0
 10
-156.3039572164286
 20
39.99316452829353
 30
0.0
 10
-157.4874646126107
 20
39.98376857421815
 30
0.0
 10
-158.6248503442307
 20
39.95759422825032
 30
0.0
 10
-159.7058792010405
 20
39.91717306603877
 30
0.0
 10
-160.6821307700253
 20
39.86764302743401
 30
0.0
 10
-161.5431741473702
 20
39.81375882329787
 30
0.0
 10
-162.2507312520944
 20
39.76227211070204
 30
0.0
 10
-162.79080990715
 20
39.71869384051922
 30
0.0
 10
-163.1964558017452
 20
39.68350241159037
 30
0.0
 10
-163.2534488408874
 20
39.67832248836319
 30
0.0
 10
-163.2854168657549
 20
39.67541701223783
 30
0.0
  0
LINE
  5
AA
330
1F
100
AcDbEntity
  8
0
  6
Continuous
 62
     7
370
    25
100
AcDbLine
 10
-8.2854168658
 20
159.1754170122
 30
0.0
 11
-8.2854168658
 21
76.1754170122
 31
0.0
  0
SPLINE
  5
AB
330
1F
100
AcDbEntity
  8
0
  6
Continuous
 62
     7
370
    25
100
AcDbSpline
210
0.0
220
0.0
230
1.0
 70
     8
 71
     3
 72
    26
 73
    22
 74
     0
 42
0.00000001
 43
0.00000001
 40
0.0
 40
0.0
 40
0.0
 40
0.0
 40
0.0146132621600244
 40
0.0686029503327019
 40
0.1207491003900341
 40
0.1743820050075217
 40
0.22700562574925
 40
0.2811233989169293
 40
0.3342855876308377
 40
0.389000944246837
 40
0.4419207836214766
 40
0.4964145594905602
 40
0.5486721442660517
 40
0.6024502428198552
 40
0.6546652528944533
 40
0.7083593158890861
 40
0.7612090458490757
 40
0.8155702812318563
 40
0.8687509141348729
 40
0.9235002148262453
 40
1.0
 40
1.0
 40
1.0
 40
1.0
 10
-9.304561988761506
 20
76.1786378224534
 30
0.0
 10
-9.298957291009463
 20
76.17769506245958
 30
0.0
 10
-9.272645657282336
 20
76.1732692117274
 30
0.0
 10
-9.422159409083392
 20
76.19851067289143
 30
0.0
 10
-9.75565516136795
 20
76.25282785277435
 30
0.0
 10
-10.2799924475256
 20
76.33302357325461
 30
0.0
 10
-10.97358746468334
 20
76.42892215152737
 30
0.0
 10
-11.81445016615274
 20
76.52976108521592
 30
0.0
 10
-12.79318775869318
 20
76.62552277182033
 30
0.0
 10
-13.8655941522942
 20
76.70358978984221
 30
0.0
 10
-15.01702643467152
 20
76.75593239375665
 30
0.0
 10
-16.18839452125803
 20
76.77561282290935
 30
0.0
 10
-17.36810397545754
 20
76.76118525868782
 30
0.0
 10
-18.50085780155475
 20
76.71509147578172
 30
0.0
 10
-19.58038568170102
 20
76.64185479329153
 30
0.0
 10
-20.56219092914667
 20
76.5505380020705
 30
0.0
 10
-21.43620723584841
 20
76.4496060476568
 30
0.0
 10
-22.16437653403269
 20
76.35135877534428
 30
0.0
 10
-22.72911877595681
 20
76.26654960636567
 30
0.0
 10
-23.1808378939511
 20
76.19332455460862
 30
0.0
 10
-23.24690754035313
 20
76.18201114262952
 30
0.0
 10
-23.28541686575488
 20
76.17541701223782
 30
0.0
  0
LINE
  5
AC
330
1F
100
AcDbEntity
  8
0
  6
Continuous
 62
     7
370
    25
100
AcDbLine
 10
-23.2854168658
 20
61.1754170122
 30
0.0
 11
-9.2854168658
 21
61.1754170122
 31
0.0
  0
LINE
  5
AD
330
1F
100
AcDbEntity
  8
0
  6
Continuous
 62
     7
370
    25
100
AcDbLine
 10
-163.2854168658
 20
22.1754170122
 30
0.0
 11
-149.2854168658
 21
22.1754170122
 31
0.0
  0
LINE
  5
AE
330
1F
100
AcDbEntity
  8
0
  6
Continuous
 62
     1
370
    25
100
AcDbLine
 10
-88.793017198
 20
194.3916607355
 30
0.0
 11
-88.793017198
 21
40.9591732889
 31
0.0
  0
LINE
  5
AF
330
1F
100
AcDbEntity
  8
0
  6
Continuous
 62
     1
370
    25
100
AcDbLine
 10
-90.6603669051
 20
195.6754170122
 30
0.0
 11
-90.6603669051
 21
39.6754170122
 31
0.0
  0
LINE
  5
B0
330
1F
100
AcDbEntity
  8
0
  6
Continuous
 62
     1
370
    25
100
AcDbLine
 10
-75.7778165335
 20
160.4591732889
 30
0.0
 11
-75.7778165335
 21
74.8916607355
 31
0.0
  0
LINE
  5
B1
330
1F
100
AcDbEntity
  8
0
  6
Continuous
 62
     1
370
    25
100
AcDbLine
 10
-73.9104668264
 20
159.1754170122
 30
0.0
 11
-73.9104668264
 21
76.1754170122
 31
0.0
  0
ARC
  5
B2
330
1F
100
AcDbEntity
  8
0
  6
Continuous
 62
     7
370
    25
100
AcDbCircle
 10
212.1701403815
 20
334.7834960121
 30
0.0
 40
2.00000000000007
100
AcDbArc
 50
290.9848978359
 51
0.0
  0
ARC
  5
B3
330
1F
100
AcDbEntity
  8
0
  6
Continuous
 62
     7
370
    25
100
AcDbCircle
 10
60.1701403815
 20
334.7834960121
 30
0.0
 40
2.000000000000063
100
AcDbArc
 50
180.0
 51
249.0151021641
  0
LINE
  5
B4
330
1F
100
AcDbEntity
  8
0
  6
Continuous
 62
     7
370
    25
100
AcDbLine
 10
214.1701403815
 20
334.7834960121
 30
0.0
 11
214.1701403815
 21
408.4085459727
 31
0.0
  0
LINE
  5
B5
330
1F
100
AcDbEntity
  8
0
  6
Continuous
 62
     7
370
    25
100
AcDbLine
 10
58.1701403815
 20
408.4085459727
 30
0.0
 11
58.1701403815
 21
334.7834960121
 31
0.0
  0
LINE
  5
B6
330
1F
100
AcDbEntity
  8
0
  6
Continuous
 62
     7
370
    25
100
AcDbLine
 10
59.4538966582
 20
332.9161463049
 30
0.0
 11
93.3863841048
 21
319.9009456404
 31
0.0
  0
LINE
  5
B7
330
1F
100
AcDbEntity
  8
0
  6
Continuous
 62
     7
370
    25
100
AcDbLine
 10
178.9538966582
 20
319.9009456404
 30
0.0
 11
212.8863841048
 21
332.9161463049
 31
0.0
  0
ARC
  5
B8
330
1F
100
AcDbEntity
  8
0
  6
Continuous
 62
     7
370
    25
100
AcDbCircle
 10
179.6701403815
 20
318.0335959333
 30
0.0
 40
2.000000000000007
100
AcDbArc
 50
110.9848978359
 51
180.0
  0
ARC
  5
B9
330
1F
100
AcDbEntity
  8
0
  6
Continuous
 62
     7
370
    25
100
AcDbCircle
 10
92.6701403815
 20
318.0335959333
 30
0.0
 40
2.000000000000007
100
AcDbArc
 50
0.0
 51
69.0151021641
  0
LINE
  5
BA
330
1F
100
AcDbEntity
  8
0
  6
Continuous
 62
     7
370
    25
100
AcDbLine
 10
177.6701403815
 20
252.4085459727
 30
0.0
 11
177.6701403815
 21
318.0335959333
 31
0.0
  0
LINE
  5
BB
330
1F
100
AcDbEntity
  8
0
  6
Continuous
 62
     7
370
    25
100
AcDbLine
 10
94.6701403815
 20
318.0335959333
 30
0.0
 11
94.6701403815
 21
252.4085459727
 31
0.0
  0
CIRCLE
  5
BC
330
1F
100
AcDbEntity
  8
0
  6
Continuous
 62
     7
370
    25
100
AcDbCircle
 10
136.1701403815
 20
400.4085459727
 30
0.0
 40
7.0
  0
CIRCLE
  5
BD
330
1F
100
AcDbEntity
  8
0
  6
Continuous
 62
     7
370
    25
100
AcDbCircle
 10
136.1701403815
 20
400.4085459727
 30
0.0
 40
5.0
  0
LINE
  5
BE
330
1F
100
AcDbEntity
  8
0
  6
Continuous
 62
     7
370
    25
100
AcDbLine
 10
214.1701403815
 20
408.4085459727
 30
0.0
 11
58.1701403815
 21
408.4085459727
 31
0.0
  0
CIRCLE
  5
BF
330
1F
100
AcDbEntity
  8
0
  6
Continuous
 62
     7
370
    25
100
AcDbCircle
 10
136.1701403815
 20
260.4085459727
 30
0.0
 40
5.0
  0
CIRCLE
  5
C0
330
1F
100
AcDbEntity
  8
0
  6
Continuous
 62
     7
370
    25
100
AcDbCircle
 10
136.1701403815
 20
260.4085459727
 30
0.0
 40
7.000000000000057
  0
LINE
  5
C1
330
1F
100
AcDbEntity
  8
0
  6
Continuous
 62
     7
370
    25
100
AcDbLine
 10
177.6701403815
 20
252.4085459727
 30
0.0
 11
94.6701403815
 21
252.4085459727
 31
0.0
  0
LINE
  5
C2
330
1F
100
AcDbEntity
  8
0
  6
Continuous
 62
     1
370
    25
100
AcDbLine
 10
212.8863841048
 20
332.9161463049
 30
0.0
 11
59.4538966582
 21
332.9161463049
 31
0.0
  0
LINE
  5
C3
330
1F
100
AcDbEntity
  8
0
  6
Continuous
 62
     1
370
    25
100
AcDbLine
 10
214.1701403815
 20
334.7834960121
 30
0.0
 11
58.1701403815
 21
334.7834960121
 31
0.0
  0
LINE
  5
C4
330
1F
100
AcDbEntity
  8
0
  6
Continuous
 62
     1
370
    25
100
AcDbLine
 10
178.9538966582
 20
319.9009456404
 30
0.0
 11
93.3863841048
 21
319.9009456404
 31
0.0
  0
LINE
  5
C5
330
1F
100
AcDbEntity
  8
0
  6
Continuous
 62
     1
370
    25
100
AcDbLine
 10
177.6701403815
 20
318.0335959333
 30
0.0
 11
94.6701403815
 21
318.0335959333
 31
0.0
  0
INSERT
  5
D1
330
1F
100
AcDbEntity
  8
FORMAT
 62
     7
100
AcDbBlockReference
  2
SW_CENTERMARKSYMBOL_1
 10
136.1701403815
 20
260.4085459727
 30
0.0
  0
INSERT
  5
DD
330
1F
100
AcDbEntity
  8
FORMAT
 62
     7
100
AcDbBlockReference
  2
SW_CENTERMARKSYMBOL_2
 10
136.1701403815
 20
400.4085459727
 30
0.0
  0
ARC
  5
DE
330
1F
100
AcDbEntity
  8
0
  6
Continuous
 62
     7
370
    25
100
AcDbCircle
 10
348.7785781245
 20
41.6754170122
 30
0.0
 40
2.000000000000014
100
AcDbArc
 50
200.9848978359
 51
270.0
  0
ARC
  5
DF
330
1F
100
AcDbEntity
  8
0
  6
Continuous
 62
     7
370
    25
100
AcDbCircle
 10
348.7785781245
 20
193.6754170122
 30
0.0
 40
2.000000000000028
100
AcDbArc
 50
90.0
 51
159.0151021641
  0
LINE
  5
E0
330
1F
100
AcDbEntity
  8
0
  6
Continuous
 62
     7
370
    25
100
AcDbLine
 10
421.4036280851
 20
39.6754170122
 30
0.0
 11
422.4036280851
 21
39.6754170122
 31
0.0
  0
LINE
  5
E1
330
1F
100
AcDbEntity
  8
0
  6
Continuous
 62
     7
370
    25
100
AcDbLine
 10
348.7785781245
 20
39.6754170122
 30
0.0
 11
407.4252938546
 21
39.6754170122
 31
0.0
  0
LINE
  5
E2
330
1F
100
AcDbEntity
  8
0
  6
Continuous
 62
     7
370
    25
100
AcDbLine
 10
422.4036280851
 20
195.6754170122
 30
0.0
 11
348.7785781245
 21
195.6754170122
 31
0.0
  0
LINE
  5
E3
330
1F
100
AcDbEntity
  8
0
  6
Continuous
 62
     7
370
    25
100
AcDbLine
 10
346.9112284174
 20
194.3916607355
 30
0.0
 11
333.8960277529
 21
160.4591732889
 31
0.0
  0
LINE
  5
E4
330
1F
100
AcDbEntity
  8
0
  6
Continuous
 62
     7
370
    25
100
AcDbLine
 10
333.8960277529
 20
74.8916607355
 30
0.0
 11
346.9112284174
 21
40.9591732889
 31
0.0
  0
ARC
  5
E5
330
1F
100
AcDbEntity
  8
0
  6
Continuous
 62
     7
370
    25
100
AcDbCircle
 10
332.0286780458
 20
74.1754170122
 30
0.0
 40
2.000000000000007
100
AcDbArc
 50
20.9848978359
 51
90.0
  0
ARC
  5
E6
330
1F
100
AcDbEntity
  8
0
  6
Continuous
 62
     7
370
    25
100
AcDbCircle
 10
332.0286780458
 20
161.1754170122
 30
0.0
 40
2.0
100
AcDbArc
 50
270.0
 51
339.0151021641
  0
LINE
  5
E7
330
1F
100
AcDbEntity
  8
0
  6
Continuous
 62
     7
370
    25
100
AcDbLine
 10
281.4036280851
 20
76.1754170122
 30
0.0
 11
332.0286780458
 21
76.1754170122
 31
0.0
  0
LINE
  5
E8
330
1F
100
AcDbEntity
  8
0
  6
Continuous
 62
     7
370
    25
100
AcDbLine
 10
266.4036280851
 20
76.1754170122
 30
0.0
 11
267.4227732081
 21
76.1754170122
 31
0.0
  0
LINE
  5
E9
330
1F
100
AcDbEntity
  8
0
  6
Continuous
 62
     7
370
    25
100
AcDbLine
 10
332.0286780458
 20
159.1754170122
 30
0.0
 11
266.4036280851
 21
159.1754170122
 31
0.0
  0
LINE
  5
EA
330
1F
100
AcDbEntity
  8
0
  6
Continuous
 62
     7
370
    25
100
AcDbLine
 10
267.4036280851
 20
76.178633637
 30
0.0
 11
267.4036280851
 21
61.1754170122
 31
0.0
  0
LINE
  5
EB
330
1F
100
AcDbEntity
  8
0
  6
Continuous
 62
     7
370
    25
100
AcDbLine
 10
281.4036280851
 20
61.1754170122
 30
0.0
 11
281.4036280851
 21
76.1754170122
 31
0.0
  0
LINE
  5
EC
330
1F
100
AcDbEntity
  8
0
  6
Continuous
 62
     7
370
    25
100
AcDbLine
 10
407.4036280851
 20
39.6773557417
 30
0.0
 11
407.4036280851
 21
22.1754170122
 31
0.0
  0
LINE
  5
ED
330
1F
100
AcDbEntity
  8
0
  6
Continuous
 62
     7
370
    25
100
AcDbLine
 10
421.4036280851
 20
22.1754170122
 30
0.0
 11
421.4036280851
 21
39.6754170122
 31
0.0
  0
LINE
  5
EE
330
1F
100
AcDbEntity
  8
0
  6
Continuous
 62
     7
370
    25
100
AcDbLine
 10
422.4036280851
 20
117.6754170122
 30
0.0
 11
422.4036280851
 21
195.6754170122
 31
0.0
  0
LINE
  5
EF
330
1F
100
AcDbEntity
  8
0
  6
Continuous
 62
     7
370
    25
100
AcDbLine
 10
422.4036280851
 20
39.6754170122
 30
0.0
 11
422.4036280851
 21
117.6754170122
 31
0.0
  0
SPLINE
  5
F0
330
1F
100
AcDbEntity
  8
0
  6
Continuous
 62
     7
370
    25
100
AcDbSpline
210
0.0
220
0.0
230
1.0
 70
     8
 71
     3
 72
    26
 73
    22
 74
     0
 42
0.00000001
 43
0.00000001
 40
0.0
 40
0.0
 40
0.0
 40
0.0
 40
0.0527809688742493
 40
0.1070963360664789
 40
0.1598762378773
 40
0.214179519221549
 40
0.2670915211427053
 40
0.3215324870307559
 40
0.3745283582383481
 40
0.42906902543514
 40
0.4819195289201654
 40
0.5363117010470936
 40
0.5890143711220264
 40
0.643241465698571
 40
0.6960244658374325
 40
0.7503275329304837
 40
0.8032934419064732
 40
0.8577945695633312
 40
0.9107612016723309
 40
0.9652742238733275
 40
1.0
 40
1.0
 40
1.0
 40
1.0
 10
421.403628085137
 20
39.67541701223782
 30
0.0
 10
421.3850153667244
 20
39.67709863661034
 30
0.0
 10
421.3472488385846
 20
39.68051077194584
 30
0.0
 10
421.0434561333129
 20
39.70723991861011
 30
0.0
 10
420.5629744272781
 20
39.74703216515451
 30
0.0
 10
419.9097661774275
 20
39.79642396306362
 30
0.0
 10
419.0947844588471
 20
39.85029164470851
 30
0.0
 10
418.1532826648623
 20
39.9018709352351
 30
0.0
 10
417.0954481485923
 20
39.94610533302482
 30
0.0
 10
415.9708887016119
 20
39.97721988405632
 30
0.0
 10
414.7920876786241
 20
39.99218826510668
 30
0.0
 10
413.6150800596781
 20
39.98911886621433
 30
0.0
 10
412.4511051560832
 20
39.96838570371321
 30
0.0
 10
411.3533206071497
 20
39.93271275979195
 30
0.0
 10
410.3318044014604
 20
39.8855053699894
 30
0.0
 10
409.4323289806547
 20
39.83273486998547
 30
0.0
 10
408.6655073071715
 20
39.7795276999042
 30
0.0
 10
408.0646732513641
 20
39.73249641163153
 30
0.0
 10
407.6469158812145
 20
39.69710479876822
 30
0.0
 10
407.423670381165
 20
39.67722189182794
 30
0.0
 10
407.4248390764764
 20
39.67731919940423
 30
0.0
 10
407.4252938545831
 20
39.67735706500948
 30
0.0
  0
LINE
  5
F1
330
1F
100
AcDbEntity
  8
0
  6
Continuous
 62
     7
370
    25
100
AcDbLine
 10
266.4036280851
 20
117.6754170122
 30
0.0
 11
266.4036280851
 21
159.1754170122
 31
0.0
  0
LINE
  5
F2
330
1F
100
AcDbEntity
  8
0
  6
Continuous
 62
     7
370
    25
100
AcDbLine
 10
266.4036280851
 20
76.1754170122
 30
0.0
 11
266.4036280851
 21
117.6754170122
 31
0.0
  0
SPLINE
  5
F3
330
1F
100
AcDbEntity
  8
0
  6
Continuous
 62
     7
370
    25
100
AcDbSpline
210
0.0
220
0.0
230
1.0
 70
     8
 71
     3
 72
    26
 73
    22
 74
     0
 42
0.00000001
 43
0.00000001
 40
0.0
 40
0.0
 40
0.0
 40
0.0
 40
0.0524134020904992
 40
0.1063598463371466
 40
0.1587695900724479
 40
0.2126745631546677
 40
0.2655395282469227
 40
0.3199175896935134
 40
0.3730926073090419
 40
0.4278374707357297
 40
0.4805051995142381
 40
0.5347331940645019
 40
0.586865916692728
 40
0.6404973070444655
 40
0.6929012009478205
 40
0.7467875119739514
 40
0.7998425774298744
 40
0.8544321878862624
 40
0.9075115050855631
 40
0.9621665516195246
 40
1.0
 40
1.0
 40
1.0
 40
1.0
 10
281.403628085137
 20
76.1754170122378
 30
0.0
 10
281.3852226553962
 20
76.17854178551912
 30
0.0
 10
281.3478734546017
 20
76.18488272872798
 30
0.0
 10
281.0476246301188
 20
76.23456562627506
 30
0.0
 10
280.5733058793492
 20
76.30858246130363
 30
0.0
 10
279.9278178716041
 20
76.40081132510625
 30
0.0
 10
279.1206069520937
 20
76.50201419308434
 30
0.0
 10
278.1835400217489
 20
76.59979617258801
 30
0.0
 10
277.1269702415532
 20
76.68436039063259
 30
0.0
 10
276.0021333059451
 20
76.7442666805212
 30
0.0
 10
274.8237823646361
 20
76.77356292286078
 30
0.0
 10
273.6517580646531
 20
76.76870392138369
 30
0.0
 10
272.4950587764132
 20
76.73068604984437
 30
0.0
 10
271.4047856716463
 20
76.66478051199763
 30
0.0
 10
270.3875723212083
 20
76.57708837637342
 30
0.0
 10
269.4855552007414
 20
76.47825687638635
 30
0.0
 10
268.7107973818472
 20
76.37772860055239
 30
0.0
 10
268.0983334823677
 20
76.28797504993288
 30
0.0
 10
267.6669409937898
 20
76.21947822359432
 30
0.0
 10
267.4297476388062
 20
76.1798394757295
 30
0.0
 10
267.4247979382527
 20
76.17898667151167
 30
0.0
 10
267.4227732081437
 20
76.17863782245338
 30
0.0
  0
LINE
  5
F4
330
1F
100
AcDbEntity
  8
0
  6
Continuous
 62
     7
370
    25
100
AcDbLine
 10
267.4036280851
 20
61.1754170122
 30
0.0
 11
281.4036280851
 21
61.1754170122
 31
0.0
  0
LINE
  5
F5
330
1F
100
AcDbEntity
  8
0
  6
Continuous
 62
     7
370
    25
100
AcDbLine
 10
407.4036280851
 20
22.1754170122
 30
0.0
 11
421.4036280851
 21
22.1754170122
 31
0.0
  0
LINE
  5
F6
330
1F
100
AcDbEntity
  8
0
  6
Continuous
 62
     1
370
    25
100
AcDbLine
 10
346.9112284174
 20
117.6754170122
 30
0.0
 11
346.9112284174
 21
194.3916607355
 31
0.0
  0
LINE
  5
F7
330
1F
100
AcDbEntity
  8
0
  6
Continuous
 62
     1
370
    25
100
AcDbLine
 10
346.9112284174
 20
40.9591732889
 30
0.0
 11
346.9112284174
 21
117.6754170122
 31
0.0
  0
LINE
  5
F8
330
1F
100
AcDbEntity
  8
0
  6
Continuous
 62
     1
370
    25
100
AcDbLine
 10
348.7785781245
 20
117.6754170122
 30
0.0
 11
348.7785781245
 21
195.6754170122
 31
0.0
  0
LINE
  5
F9
330
1F
100
AcDbEntity
  8
0
  6
Continuous
 62
     1
370
    25
100
AcDbLine
 10
348.7785781245
 20
39.6754170122
 30
0.0
 11
348.7785781245
 21
117.6754170122
 31
0.0
  0
LINE
  5
FA
330
1F
100
AcDbEntity
  8
0
  6
Continuous
 62
     1
370
    25
100
AcDbLine
 10
333.8960277529
 20
117.6754170122
 30
0.0
 11
333.8960277529
 21
160.4591732889
 31
0.0
  0
LINE
  5
FB
330
1F
100
AcDbEntity
  8
0
  6
Continuous
 62
     1
370
    25
100
AcDbLine
 10
333.8960277529
 20
74.8916607355
 30
0.0
 11
333.8960277529
 21
117.6754170122
 31
0.0
  0
LINE
  5
FC
330
1F
100
AcDbEntity
  8
0
  6
Continuous
 62
     1
370
    25
100
AcDbLine
 10
332.0286780458
 20
117.6754170122
 30
0.0
 11
332.0286780458
 21
159.1754170122
 31
0.0
  0
LINE
  5
FD
330
1F
100
AcDbEntity
  8
0
  6
Continuous
 62
     1
370
    25
100
AcDbLine
 10
332.0286780458
 20
76.1754170122
 30
0.0
 11
332.0286780458
 21
117.6754170122
 31
0.0
  0
ARC
  5
FE
330
1F
100
AcDbEntity
  8
0
  6
Continuous
 62
     7
370
    25
100
AcDbCircle
 10
60.1701403815
 20
-92.9066129418
 30
0.0
 40
2.000000000000014
100
AcDbArc
 50
110.9848978359
 51
180.0
  0
ARC
  5
FF
330
1F
100
AcDbEntity
  8
0
  6
Continuous
 62
     7
370
    25
100
AcDbCircle
 10
212.1701403815
 20
-92.9066129418
 30
0.0
 40
2.000000000000057
100
AcDbArc
 50
0.0
 51
69.0151021641
  0
LINE
  5
100
330
1F
100
AcDbEntity
  8
0
  6
Continuous
 62
     7
370
    25
100
AcDbLine
 10
58.1701403815
 20
-92.9066129418
 30
0.0
 11
58.1701403815
 21
-166.5316629024
 31
0.0
  0
LINE
  5
101
330
1F
100
AcDbEntity
  8
0
  6
Continuous
 62
     7
370
    25
100
AcDbLine
 10
214.1701403815
 20
-166.5316629024
 30
0.0
 11
214.1701403815
 21
-92.9066129418
 31
0.0
  0
LINE
  5
102
330
1F
100
AcDbEntity
  8
0
  6
Continuous
 62
     7
370
    25
100
AcDbLine
 10
212.8863841048
 20
-91.0392632346
 30
0.0
 11
178.9538966582
 21
-78.0240625702
 31
0.0
  0
LINE
  5
103
330
1F
100
AcDbEntity
  8
0
  6
Continuous
 62
     7
370
    25
100
AcDbLine
 10
93.3863841048
 20
-78.0240625702
 30
0.0
 11
59.4538966582
 21
-91.0392632346
 31
0.0
  0
ARC
  5
104
330
1F
100
AcDbEntity
  8
0
  6
Continuous
 62
     7
370
    25
100
AcDbCircle
 10
92.6701403815
 20
-76.156712863
 30
0.0
 40
2.0
100
AcDbArc
 50
290.9848978359
 51
0.0
  0
ARC
  5
105
330
1F
100
AcDbEntity
  8
0
  6
Continuous
 62
     7
370
    25
100
AcDbCircle
 10
179.6701403815
 20
-76.156712863
 30
0.0
 40
2.0
100
AcDbArc
 50
180.0
 51
249.0151021641
  0
LINE
  5
106
330
1F
100
AcDbEntity
  8
0
  6
Continuous
 62
     7
370
    25
100
AcDbLine
 10
94.6701403815
 20
-10.5316629024
 30
0.0
 11
94.6701403815
 21
-76.156712863
 31
0.0
  0
LINE
  5
107
330
1F
100
AcDbEntity
  8
0
  6
Continuous
 62
     7
370
    25
100
AcDbLine
 10
177.6701403815
 20
-76.156712863
 30
0.0
 11
177.6701403815
 21
-10.5316629024
 31
0.0
  0
LINE
  5
108
330
1F
100
AcDbEntity
  8
0
  6
Continuous
 62
     7
370
    25
100
AcDbLine
 10
58.1701403815
 20
-166.5316629024
 30
0.0
 11
214.1701403815
 21
-166.5316629024
 31
0.0
  0
LINE
  5
109
330
1F
100
AcDbEntity
  8
0
  6
Continuous
 62
     7
370
    25
100
AcDbLine
 10
94.6701403815
 20
-10.5316629024
 30
0.0
 11
177.6701403815
 21
-10.5316629024
 31
0.0
  0
LINE
  5
10A
330
1F
100
AcDbEntity
  8
0
  6
Continuous
 62
     1
370
    25
100
AcDbLine
 10
59.4538966582
 20
-91.0392632346
 30
0.0
 11
212.8863841048
 21
-91.0392632346
 31
0.0
  0
LINE
  5
10B
330
1F
100
AcDbEntity
  8
0
  6
Continuous
 62
     1
370
    25
100
AcDbLine
 10
58.1701403815
 20
-92.9066129418
 30
0.0
 11
214.1701403815
 21
-92.9066129418
 31
0.0
  0
LINE
  5
10C
330
1F
100
AcDbEntity
  8
0
  6
Continuous
 62
     1
370
    25
100
AcDbLine
 10
93.3863841048
 20
-78.0240625702
 30
0.0
 11
178.9538966582
 21
-78.0240625702
 31
0.0
  0
LINE
  5
10D
330
1F
100
AcDbEntity
  8
0
  6
Continuous
 62
     1
370
    25
100
AcDbLine
 10
94.6701403815
 20
-76.156712863
 30
0.0
 11
177.6701403815
 21
-76.156712863
 31
0.0
  0
LINE
  5
10E
330
1F
100
AcDbEntity
  8
0
  6
Continuous
 62
     7
370
    25
100
AcDbLine
 10
388.2417525837
 20
-36.919119397
 30
0.0
 11
336.1809804913
 21
-6.8650753864
 31
0.0
  0
LINE
  5
10F
330
1F
100
AcDbEntity
  8
0
  6
Continuous
 62
     7
370
    25
100
AcDbLine
 10
258.1873193457
 20
-141.9686979178
 30
0.0
 11
310.2480914381
 21
-172.0227419284
 31
0.0
  0
LINE
  5
110
330
1F
100
AcDbEntity
  8
0
  6
Continuous
 62
     7
370
    25
100
AcDbLine
 10
295.841004168
 20
-141.2442629731
 30
0.0
 11
295.841004168
 21
-155.6621666345
 31
0.0
  0
LINE
  5
111
330
1F
100
AcDbEntity
  8
0
  6
Continuous
 62
     7
370
    25
100
AcDbLine
 10
309.841004168
 20
-155.6621666345
 30
0.0
 11
309.841004168
 21
-141.2444032859
 31
0.0
  0
SPLINE
  5
112
330
1F
100
AcDbEntity
  8
0
  6
Continuous
 62
     7
370
    25
100
AcDbSpline
210
0.0
220
0.0
230
1.0
 70
     8
 71
     3
 72
    72
 73
    68
 74
     0
 42
0.00000001
 43
0.00000001
 40
0.0
 40
0.0
 40
0.0
 40
0.0
 40
0.0052597970074106
 40
0.0206316439795403
 40
0.0360254502314261
 40
0.0514531424158712
 40
0.0669233898739757
 40
0.0824411293133398
 40
0.0980076079173862
 40
0.1136208669208451
 40
0.1292765160119274
 40
0.1449686214391513
 40
0.1606905492001824
 40
0.1764356550154456
 40
0.1921977728764656
 40
0.2079715046228276
 40
0.2237523445415325
 40
0.2395366852647563
 40
0.2553213268393307
 40
0.2711040975899633
 40
0.2868837283137185
 40
0.3026594038434688
 40
0.3184306646397956
 40
0.3341973240969675
 40
0.3499594013353263
 40
0.3657170679635202
 40
0.3814706067825192
 40
0.3972203803351924
 40
0.412966807365175
 40
0.428710345504841
 40
0.4444514787891128
 40
0.460190708850809
 40
0.4759285488765702
 40
0.4916655195846394
 40
0.5074021466273841
 40
0.5231389586099552
 40
0.5388763102355386
 40
0.5546147339076328
 40
0.5703547623057592
 40
0.5860969266681002
 40
0.6018417541587919
 40
0.6175897637826648
 40
0.633341460234573
 40
0.6490973249222232
 40
0.664857803210438
 40
0.680623286699603
 40
0.6963940890760552
 40
0.7121704137732412
 40
0.7279523113966089
 40
0.7437396246651543
 40
0.7595319186383677
 40
0.7753283944442532
 40
0.7911277859334026
 40
0.8069278991330662
 40
0.8227254865096608
 40
0.8385168491110535
 40
0.8542973338656729
 40
0.8700613248980322
 40
0.8858023564959026
 40
0.9015133991085581
 40
0.9171873588984818
 40
0.9328177985235643
 40
0.9483998307017905
 40
0.9639310667459532
 40
0.9794124427290772
 40
0.9948487249004357
 40
1.0
 40
1.0
 40
1.0
 40
1.0
 10
313.0927554495851
 20
-173.4302754305639
 30
0.0
 10
313.3188849538947
 20
-173.5337467405821
 30
0.0
 10
314.2058818132051
 20
-173.9396147289064
 30
0.0
 10
315.8341370832513
 20
-174.4902142879331
 30
0.0
 10
317.9720831765266
 20
-175.0792357692751
 30
0.0
 10
320.1846450542397
 20
-175.5009792225613
 30
0.0
 10
322.4606982134527
 20
-175.7677103706529
 30
0.0
 10
324.7975348288958
 20
-175.8748207094026
 30
0.0
 10
327.1897220667353
 20
-175.8225575002327
 30
0.0
 10
329.6320821151733
 20
-175.6103085196106
 30
0.0
 10
332.1189351115522
 20
-175.2382491702142
 30
0.0
 10
334.6443920287419
 20
-174.7069700005511
 30
0.0
 10
337.2023858009186
 20
-174.0176040972446
 30
0.0
 10
339.7867717539087
 20
-173.1717813846973
 30
0.0
 10
342.3913926875087
 20
-172.1716024694686
 30
0.0
 10
345.0101293500872
 20
-171.0195933020727
 30
0.0
 10
347.6369303479821
 20
-169.7186621532256
 30
0.0
 10
350.2658037277963
 20
-168.2720734554066
 30
0.0
 10
352.890838594547
 20
-166.6834127386069
 30
0.0
 10
355.5062211627897
 20
-164.9565525673919
 30
0.0
 10
358.1062527085209
 20
-163.0956137962943
 30
0.0
 10
360.6853269257557
 20
-161.1049585391526
 30
0.0
 10
363.2379097887003
 20
-158.9891922368859
 30
0.0
 10
365.7585403477019
 20
-156.7531559668681
 30
0.0
 10
368.2418337715899
 20
-154.4019193511902
 30
0.0
 10
370.682486383143
 20
-151.9407734095336
 30
0.0
 10
373.0752823411655
 20
-149.3752229288432
 30
0.0
 10
375.4151016017015
 20
-146.7109780950944
 30
0.0
 10
377.696928811285
 20
-143.9539452565859
 30
0.0
 10
379.9158628239886
 20
-141.1102167734888
 30
0.0
 10
382.0671265785451
 20
-138.1860599645781
 30
0.0
 10
384.146077114818
 20
-135.1879051976186
 30
0.0
 10
386.148215546879
 20
-132.1223331917711
 30
0.0
 10
388.0691968423429
 20
-128.9960616124853
 30
0.0
 10
389.9048392700325
 20
-125.8159310709595
 30
0.0
 10
391.651126933356
 20
-122.5889026040309
 30
0.0
 10
393.3042263895464
 20
-119.3220313121016
 30
0.0
 10
394.8604948165096
 20
-116.0224506075943
 30
0.0
 10
396.3164922953326
 20
-112.697343841743
 30
0.0
 10
397.6689818669857
 20
-109.3539406798722
 30
0.0
 10
398.9149353599286
 20
-105.9995014429005
 30
0.0
 10
400.0515384378382
 20
-102.6413015964867
 30
0.0
 10
401.0761948438058
 20
-99.28661655647839
 30
0.0
 10
401.9865298414677
 20
-95.94270699963361
 30
0.0
 10
402.7803928838625
 20
-92.61680489930988
 30
0.0
 10
403.4558595852799
 20
-89.31610053928803
 30
0.0
 10
404.0112331346253
 20
-86.04773079360089
 30
0.0
 10
404.4450453773748
 20
-82.81876899045862
 30
0.0
 10
404.7560579138093
 20
-79.63621669447608
 30
0.0
 10
404.943263720053
 20
-76.50699772737802
 30
0.0
 10
405.0058899973301
 20
-73.43795467779069
 30
0.0
 10
404.9434031892969
 20
-70.43584799057004
 30
0.0
 10
404.7555187016745
 20
-67.50737855308802
 30
0.0
 10
404.4422212327612
 20
-64.659208065425
 30
0.0
 10
404.0037903364675
 20
-61.8979324946787
 30
0.0
 10
403.4408260938301
 20
-59.23006102030612
 30
0.0
 10
402.7542760782632
 20
-56.66199266207427
 30
0.0
 10
401.9454792169231
 20
-54.20001792418817
 30
0.0
 10
401.0162011775566
 20
-51.85028834933969
 30
0.0
 10
399.9686872884504
 20
-49.61872838593881
 30
0.0
 10
398.805609578821
 20
-47.51106650308097
 30
0.0
 10
397.5303194018745
 20
-45.53233387273456
 30
0.0
 10
396.145827416948
 20
-43.68828697319844
 30
0.0
 10
394.6583406261296
 20
-41.97969161676761
 30
0.0
 10
393.0636996319184
 20
-40.42321762451005
 30
0.0
 10
391.7659499402897
 20
-39.29439731077476
 30
0.0
 10
390.9696776610178
 20
-38.73506634229321
 30
0.0
 10
390.7704399607551
 20
-38.59511444550244
 30
0.0
  0
LINE
  5
113
330
1F
100
AcDbEntity
  8
0
  6
Continuous
 62
     7
370
    25
100
AcDbLine
 10
428.2411214858
 20
-102.1556915855
 30
0.0
 11
403.6657107821
 21
-87.9686089668
 31
0.0
  0
LINE
  5
114
330
1F
100
AcDbEntity
  8
0
  6
Continuous
 62
     7
370
    25
100
AcDbLine
 10
362.1690590391
 20
-159.850650494
 30
0.0
 11
386.7444940814
 21
-174.0377471631
 31
0.0
  0
LINE
  5
115
330
1F
100
AcDbEntity
  8
0
  6
Continuous
 62
     7
370
    25
100
AcDbLine
 10
394.8359535341
 20
-168.475479053
 30
0.0
 11
394.8359535341
 21
-180.9656427986
 31
0.0
  0
LINE
  5
116
330
1F
100
AcDbEntity
  8
0
  6
Continuous
 62
     7
370
    25
100
AcDbLine
 10
408.8359535341
 20
-180.9656427986
 30
0.0
 11
408.8359535341
 21
-168.4756802559
 31
0.0
  0
LWPOLYLINE
  5
117
330
1F
100
AcDbEntity
  8
0
  6
Continuous
 62
     7
370
    25
100
AcDbPolyline
 90
        3
 70
   128
 43
0.0
 10
388.2417525837
 20
-36.919119397
 10
389.6759060744
 20
-37.8102940126
 10
390.6577292176
 20
-38.4984296703
  0
ARC
  5
118
330
1F
100
AcDbEntity
  8
0
  6
Continuous
 62
     7
370
    25
100
AcDbCircle
 10
323.3039566932
 20
-149.4000663168
 30
0.0
 40
26.11974481863279
100
AcDbArc
 50
240.0101493192
 51
246.6383546012
  0
LWPOLYLINE
  5
119
330
1F
100
AcDbEntity
  8
0
  6
Continuous
 62
     7
370
    25
100
AcDbPolyline
 90
      127
 70
   128
 43
0.0
 10
242.029820986
 20
-106.2568030132
 10
242.098382162
 20
-103.042529893
 10
242.303895236
 20
-99.7570889133
 10
242.6458492703
 20
-96.4086481982
 10
243.1233941131
 20
-93.0055324987
 10
243.7353425128
 20
-89.5562024969
 10
244.4801730692
 20
-86.0692337704
 10
245.3560340162
 20
-82.5532954731
 10
246.3607478255
 20
-79.0171287815
 10
247.4918166202
 20
-75.469525163
 10
248.7464283852
 20
-71.9193045194
 10
250.1214639578
 20
-68.3752932585
 10
251.6135047831
 20
-64.8463023507
 10
253.2188414123
 20
-61.3411054235
 10
254.9334827258
 20
-57.8684169486
 10
256.753165855
 20
-54.4368705768
 10
258.673366781
 20
-51.0549976731
 10
260.6893115817
 20
-47.7312061063
 10
262.7959883007
 20
-44.473759346
 10
264.9881594078
 20
-41.2907559181
 10
267.2603748201
 20
-38.1901092707
 10
269.6069854522
 20
-35.1795280997
 10
272.0221572603
 20
-32.2664971845
 10
274.4998857467
 20
-29.4582587788
 10
277.0340108881
 20
-26.7617946057
 10
279.6182324499
 20
-24.1838085001
 10
282.2461256503
 20
-21.7307097417
 10
284.9111571327
 20
-19.4085971203
 10
287.6067012089
 20
-17.223243774
 10
290.3260563317
 20
-15.1800828354
 10
293.0624617557
 20
-13.2841939246
 10
295.8091143459
 20
-11.5402905202
 10
298.5591854912
 20
-9.9527082406
 10
301.3058380813
 20
-8.5253940657
 10
304.0422435053
 20
-7.2618965234
 10
306.7615986281
 20
-6.1653568677
 10
309.4571427043
 20
-5.2385012688
 10
312.1221741867
 20
-4.4836340359
 10
314.7500673871
 20
-3.9026318878
 10
317.334288949
 20
-3.4969392875
 10
319.8684140903
 20
-3.2675648506
 10
322.3461425767
 20
-3.2150788382
 10
324.7613143848
 20
-3.3396117386
 10
327.1079250169
 20
-3.6408539436
 10
329.3801404293
 20
-4.1180565176
 10
331.5723115363
 20
-4.7700330597
 10
333.6789882553
 20
-5.5951626535
 10
335.6949330561
 20
-6.5913938969
 10
337.615133982
 20
-7.756250002
 10
339.4348171113
 20
-9.086834953
 10
341.1494584247
 20
-10.5798407061
 10
342.754795054
 20
-12.2315554137
 10
344.2468358792
 20
-14.0378726528
 10
345.6218714518
 20
-15.9943016342
 10
346.8764832168
 20
-18.0959783671
 10
348.0075520115
 20
-20.3376777521
 10
349.0122658208
 20
-22.7138265712
 10
349.8881267679
 20
-25.2185173441
 10
350.6329573243
 20
-27.845523015
 10
351.244905724
 20
-30.5883124337
 10
351.7224505668
 20
-33.4400665936
 10
352.064404601
 20
-36.3936955846
 10
352.2699176751
 20
-39.4418562196
 10
352.3384788511
 20
-42.576970291
 10
352.2699176751
 20
-45.7912434113
 10
352.064404601
 20
-49.076684391
 10
351.7224505668
 20
-52.4251251061
 10
351.244905724
 20
-55.8282408055
 10
350.6329573243
 20
-59.2775708074
 10
349.8881267678
 20
-62.7645395338
 10
349.0122658208
 20
-66.2804778311
 10
348.0075520115
 20
-69.8166445228
 10
346.8764832168
 20
-73.3642481412
 10
345.6218714518
 20
-76.9144687848
 10
344.2468358792
 20
-80.4584800457
 10
342.754795054
 20
-83.9874709535
 10
341.1494584247
 20
-87.4926678808
 10
339.4348171113
 20
-90.9653563557
 10
337.615133982
 20
-94.3969027274
 10
335.6949330561
 20
-97.7787756312
 10
333.6789882553
 20
-101.102567198
 10
331.5723115363
 20
-104.3600139582
 10
329.3801404293
 20
-107.5430173861
 10
327.1079250169
 20
-110.6436640336
 10
324.7613143848
 20
-113.6542452045
 10
322.3461425767
 20
-116.5672761198
 10
319.8684140903
 20
-119.3755145255
 10
317.334288949
 20
-122.0719786986
 10
314.7500673871
 20
-124.6499648041
 10
312.1221741867
 20
-127.1030635626
 10
309.4571427043
 20
-129.4251761839
 10
306.7615986281
 20
-131.6105295302
 10
304.0422435053
 20
-133.6536904688
 10
301.3058380813
 20
-135.5495793796
 10
298.5591854912
 20
-137.2934827841
 10
295.8091143459
 20
-138.8810650636
 10
293.0624617557
 20
-140.3083792385
 10
290.3260563317
 20
-141.5718767808
 10
287.6067012089
 20
-142.6684164366
 10
284.9111571327
 20
-143.5952720354
 10
282.2461256503
 20
-144.3501392683
 10
279.6182324499
 20
-144.9311414164
 10
277.0340108881
 20
-145.3368340168
 10
274.4998857467
 20
-145.5662084536
 10
272.0221572603
 20
-145.6186944661
 10
269.6069854522
 20
-145.4941615656
 10
267.2603748201
 20
-145.1929193606
 10
264.9881594078
 20
-144.7157167867
 10
262.7959883007
 20
-144.0637402446
 10
260.6893115817
 20
-143.2386106507
 10
258.673366781
 20
-142.2423794074
 10
256.753165855
 20
-141.0775233022
 10
254.9334827258
 20
-139.7469383512
 10
253.2188414123
 20
-138.2539325981
 10
251.6135047831
 20
-136.6022178905
 10
250.1214639578
 20
-134.7959006514
 10
248.7464283852
 20
-132.83947167
 10
247.4918166202
 20
-130.7377949371
 10
246.3607478255
 20
-128.4960955522
 10
245.3560340162
 20
-126.1199467331
 10
244.4801730692
 20
-123.6152559601
 10
243.7353425128
 20
-120.9882502893
 10
243.1233941131
 20
-118.2454608706
 10
242.6458492703
 20
-115.3937067106
 10
242.303895236
 20
-112.4400777196
 10
242.098382162
 20
-109.3919170846
 10
242.029820986
 20
-106.2568030132
  0
SPLINE
  5
11A
330
1F
100
AcDbEntity
  8
0
  6
Continuous
 62
     7
370
    25
100
AcDbSpline
210
0.0
220
0.0
230
1.0
 70
     8
 71
     3
 72
    12
 73
     8
 74
     0
 42
0.00000001
 43
0.00000001
 40
0.0
 40
0.0
 40
0.0
 40
0.0
 40
0.2111109752410784
 40
0.4283591687300611
 40
0.6394658759782291
 40
0.8566657290292049
 40
1.0
 40
1.0
 40
1.0
 40
1.0
 10
297.8912566997075
 20
-138.5152740351294
 30
0.0
 10
297.6308186502126
 20
-138.6795032583075
 30
0.0
 10
297.1023713430089
 20
-139.0127360210352
 30
0.0
 10
296.5097257992181
 20
-139.5801460414835
 30
0.0
 10
296.088802461138
 20
-140.1863346073154
 30
0.0
 10
295.8629538477407
 20
-140.7455018795641
 30
0.0
 10
295.8623450324121
 20
-141.1026380553468
 30
0.0
 10
295.8621029912418
 20
-141.2446214349561
 30
0.0
  0
SPLINE
  5
11B
330
1F
100
AcDbEntity
  8
0
  6
Continuous
 62
     7
370
    25
100
AcDbSpline
210
0.0
220
0.0
230
1.0
 70
     8
 71
     3
 72
    21
 73
    17
 74
     0
 42
0.00000001
 43
0.00000001
 40
0.0
 40
0.0
 40
0.0
 40
0.0
 40
0.0486918901808451
 40
0.1193555698428513
 40
0.1920737909849739
 40
0.2626298170023736
 40
0.335246320056765
 40
0.4055580501640323
 40
0.4779097484605919
 40
0.5482224121642342
 40
0.6205603859506837
 40
0.6911168713481528
 40
0.7637124382008318
 40
0.834376100142574
 40
0.9070997260546677
 40
1.0
 40
1.0
 40
1.0
 40
1.0
 10
309.8185211285275
 20
-141.244783274784
 30
0.0
 10
309.8185801199645
 20
-141.0803742617016
 30
0.0
 10
309.8187247222084
 20
-140.6773681066549
 30
0.0
 10
309.5903942968577
 20
-140.0417799654853
 30
0.0
 10
309.1733115741025
 20
-139.3729556715576
 30
0.0
 10
308.563863847497
 20
-138.7603558894331
 30
0.0
 10
307.8011859196922
 20
-138.234712334968
 30
0.0
 10
306.8909519101198
 20
-137.8015599417959
 30
0.0
 10
305.8767019728048
 20
-137.4798934448903
 30
0.0
 10
304.7676866480787
 20
-137.2705544017484
 30
0.0
 10
303.6136781198775
 20
-137.1801742348256
 30
0.0
 10
302.4262491934502
 20
-137.2066978736146
 30
0.0
 10
301.2583189912901
 20
-137.3453153633206
 30
0.0
 10
300.1268687560267
 20
-137.5931464974584
 30
0.0
 10
298.9606516288377
 20
-137.9639519606784
 30
0.0
 10
298.2755421628833
 20
-138.3171572749239
 30
0.0
 10
297.8912566997075
 20
-138.5152740351294
 30
0.0
  0
LWPOLYLINE
  5
11C
330
1F
100
AcDbEntity
  8
0
  6
Continuous
 62
     7
370
    25
100
AcDbPolyline
 90
      114
 70
   128
 43
0.0
 10
252.9899760944
 20
-99.9296401466
 10
253.0582769237
 20
-97.0540195688
 10
253.2629682977
 20
-94.1084289105
 10
253.603417527
 20
-91.1019728235
 10
254.0785723027
 20
-88.0439440914
 10
254.6869639485
 20
-84.9437949056
 10
255.4267119607
 20
-81.8111076497
 10
256.2955298206
 20
-78.6555652805
 10
257.290732062
 20
-75.4869213985
 10
258.4092425719
 20
-72.3149701004
 10
259.6476040982
 20
-69.149515706
 10
261.0019889365
 20
-66.0003424532
 10
262.4682107609
 20
-62.8771842563
 10
264.0417375637
 20
-59.7896946181
 10
265.7177056639
 20
-56.7474167923
 10
267.4909347399
 20
-53.7597542852
 10
269.3559438424
 20
-50.8359417905
 10
271.3069683351
 20
-47.9850166449
 10
273.3379777132
 20
-45.2157908948
 10
275.4426942429
 20
-42.5368240583
 10
277.6146123662
 20
-39.9563966682
 10
279.8470188086
 20
-37.4824846778
 10
282.1330133297
 20
-35.1227348073
 10
284.4655300514
 20
-32.8844409084
 10
286.8373592983
 20
-30.774521419
 10
289.241169882
 20
-28.7994979796
 10
291.6695317619
 20
-26.9654752743
 10
294.1149390104
 20
-25.2781221623
 10
296.569833014
 20
-23.7426541552
 10
299.0266258359
 20
-22.3638172968
 10
301.4777236703
 20
-21.1458734928
 10
303.9155503143
 20
-20.0925873375
 10
306.3325705855
 20
-19.2072144783
 10
308.7213136126
 20
-18.4924915518
 10
311.0743959279
 20
-17.9506277257
 10
313.3845442889
 20
-17.5832978699
 10
315.6446181592
 20
-17.3916373801
 10
317.8476317802
 20
-17.3762386678
 10
319.9867757629
 20
-17.5371493296
 10
322.0554381358
 20
-17.8738719997
 10
324.0472247822
 20
-18.3853658878
 10
325.9559792037
 20
-19.0700499956
 10
327.7758015497
 20
-19.9258080037
 10
329.5010668536
 20
-20.9499948131
 10
331.1264424193
 20
-22.1394447211
 10
332.646904304
 20
-23.4904812062
 10
334.0577528472
 20
-24.9989282921
 10
335.3546271969
 20
-26.6601234553
 10
336.5335187888
 20
-28.4689320366
 10
337.5907837365
 20
-30.4197631125
 10
338.5231540947
 20
-32.5065867759
 10
339.3277479601
 20
-34.7229527745
 10
340.002078379
 20
-37.0620104479
 10
340.5440610349
 20
-39.5165299029
 10
340.9520206903
 20
-42.0789243605
 10
341.2246963655
 20
-44.7412736064
 10
341.3612452354
 20
-47.4953484716
 10
341.3612452354
 20
-50.3326362685
 10
341.2246963655
 20
-53.2443671031
 10
340.9520206903
 20
-56.2215409823
 10
340.5440610349
 20
-59.2549556322
 10
340.002078379
 20
-62.335234942
 10
339.3277479601
 20
-65.4528579449
 10
338.5231540947
 20
-68.5981882468
 10
337.5907837365
 20
-71.761503812
 10
336.5335187888
 20
-74.9330270134
 10
335.3546271969
 20
-78.1029548545
 10
334.0577528472
 20
-81.2614892701
 10
332.646904304
 20
-84.3988674112
 10
331.1264424193
 20
-87.5053918218
 10
329.5010668536
 20
-90.571460413
 10
327.7758015497
 20
-93.5875961425
 10
325.9559792037
 20
-96.5444763076
 10
324.0472247822
 20
-99.4329613611
 10
322.0554381358
 20
-102.2441231614
 10
319.9867757629
 20
-104.9692725683
 10
317.8476317802
 20
-107.5999863012
 10
315.6446181592
 20
-110.1281329747
 10
313.3845442889
 20
-112.5458982324
 10
311.0743959279
 20
-114.8458089004
 10
308.7213136126
 20
-117.0207560866
 10
306.3325705855
 20
-119.0640171539
 10
303.9155503143
 20
-120.9692764995
 10
301.4777236703
 20
-122.7306450758
 10
299.0266258359
 20
-124.3426785936
 10
296.569833014
 20
-125.8003943497
 10
294.1149390104
 20
-127.0992866281
 10
291.6695317619
 20
-128.2353406273
 10
289.241169882
 20
-129.2050448695
 10
286.8373592983
 20
-130.0054020544
 10
284.4655300514
 20
-130.6339383238
 10
282.1330133297
 20
-131.0887109082
 10
279.8470188086
 20
-131.3683141316
 10
277.6146123662
 20
-131.4718837563
 10
275.4426942429
 20
-131.3990996547
 10
273.3379777132
 20
-131.1501867983
 10
271.3069683351
 20
-130.7259145623
 10
269.3559438424
 20
-130.127594348
 10
267.4909347399
 20
-129.3570755289
 10
265.7177056639
 20
-128.4167397344
 10
264.0417375637
 20
-127.3094934887
 10
262.4682107609
 20
-126.0387592264
 10
261.0019889365
 20
-124.6084647143
 10
259.6476040982
 20
-123.0230309107
 10
258.4092425719
 20
-121.2873583008
 10
257.290732062
 20
-119.4068117491
 10
256.2955298206
 20
-117.3872039171
 10
255.4267119607
 20
-115.234777297
 10
254.6869639485
 20
-112.9561849161
 10
254.0785723027
 20
-110.5584697728
 10
253.603417527
 20
-108.0490430673
 10
253.2629682977
 20
-105.4356612938
 10
253.0582769237
 20
-102.7264022654
 10
252.9899760944
 20
-99.9296401466
  0
LWPOLYLINE
  5
11D
330
1F
100
AcDbEntity
  8
0
  6
Continuous
 62
     7
370
    25
100
AcDbPolyline
 90
       38
 70
   128
 43
0.0
 10
297.8912566997
 20
-152.8047382431
 10
298.7989656936
 20
-152.3629320071
 10
299.822956775
 20
-152.0160387445
 10
300.933771585
 20
-151.7740379427
 10
302.099454004
 20
-151.6438915243
 10
303.286469471
 20
-151.6293435648
 10
304.4606697123
 20
-151.7308125824
 10
305.5882751248
 20
-151.9453794983
 10
306.6368465538
 20
-152.266871613
 10
307.5762185085
 20
-152.6860401837
 10
308.379366968
 20
-153.1908264937
 10
309.0231868134
 20
-153.7667087601
 10
309.4891565199
 20
-154.3971198984
 10
309.7638709876
 20
-155.063924128
 10
309.8394271812
 20
-155.7479387054
 10
309.7136514868
 20
-156.4294857764
 10
309.390162242
 20
-157.0889584728
 10
308.8782656435
 20
-157.7073849657
 10
308.1926880243
 20
-158.266974251
 10
307.3531522044
 20
-158.7516279637
 10
306.3838101007
 20
-159.147403499
 10
305.3125479207
 20
-159.4429151152
 10
304.1701839268
 20
-159.6296614812
 10
302.9895818513
 20
-159.702270244
 10
301.8047054664
 20
-159.6586525818
 10
300.6496415084
 20
-159.5000632953
 10
299.5576190642
 20
-159.2310647095
 10
298.5600536315
 20
-158.859395424
 10
297.6856433514
 20
-158.3957476874
 10
296.9595434156
 20
-157.8534598009
 10
296.4026423973
 20
-157.2481323996
 10
296.0309613249
 20
-156.5971796509
 10
295.8551927861
 20
-155.9193282801
 10
295.8803933217
 20
-155.2340788369
 10
296.1058379582
 20
-154.5611447003
 10
296.5250410638
 20
-153.9198849601
 10
297.1259429285
 20
-153.3287474914
 10
297.8912566997
 20
-152.8047382431
  0
LWPOLYLINE
  5
11E
330
1F
100
AcDbEntity
  8
0
  6
Continuous
 62
     7
370
    25
100
AcDbPolyline
 90
       33
 70
   128
 43
0.0
 10
299.3054702621
 20
-153.621146355
 10
300.0631530029
 20
-153.2621806837
 10
300.9275870062
 20
-152.9954451267
 10
301.8655525579
 20
-152.8311901817
 10
302.841004168
 20
-152.7757280741
 10
303.8164557781
 20
-152.8311901817
 10
304.7544213298
 20
-152.9954451267
 10
305.6188553331
 20
-153.2621806837
 10
306.3765380739
 20
-153.621146355
 10
306.9983522295
 20
-154.0585472909
 10
307.4604018306
 20
-154.5575744189
 10
307.74493057
 20
-155.0990504063
 10
307.841004168
 20
-155.6621666345
 10
307.74493057
 20
-156.2252828627
 10
307.4604018306
 20
-156.7667588501
 10
306.9983522295
 20
-157.2657859781
 10
306.3765380739
 20
-157.7031869141
 10
305.6188553331
 20
-158.0621525853
 10
304.7544213298
 20
-158.3288881423
 10
303.8164557781
 20
-158.4931430874
 10
302.841004168
 20
-158.5486051949
 10
301.8655525579
 20
-158.4931430874
 10
300.9275870062
 20
-158.3288881423
 10
300.0631530029
 20
-158.0621525853
 10
299.3054702621
 20
-157.7031869141
 10
298.6836561065
 20
-157.2657859781
 10
298.2216065055
 20
-156.7667588501
 10
297.937077766
 20
-156.2252828627
 10
297.841004168
 20
-155.6621666345
 10
297.937077766
 20
-155.0990504063
 10
298.2216065055
 20
-154.5575744189
 10
298.6836561065
 20
-154.0585472909
 10
299.3054702621
 20
-153.621146355
  0
LWPOLYLINE
  5
11F
330
1F
100
AcDbEntity
  8
0
  6
Continuous
 62
     7
370
    25
100
AcDbPolyline
 90
       36
 70
   128
 43
0.0
 10
428.2411214858
 20
-102.1556915855
 10
428.9391390341
 20
-102.5867172188
 10
430.2560024105
 20
-103.5704807375
 10
431.4667332656
 20
-104.7152215187
 10
432.5656866133
 20
-106.0156022525
 10
433.5477386258
 20
-107.4655599636
 10
434.4083105233
 20
-109.0583342797
 10
435.1433899222
 20
-110.7864989518
 10
435.7495495432
 20
-112.6419964785
 10
436.2239631903
 20
-114.6161756736
 10
436.5644189281
 20
-116.6998320026
 10
436.7693293946
 20
-118.8832504977
 10
436.8377392029
 20
-121.156251054
 10
436.7693293946
 20
-123.5082358936
 10
436.5644189281
 20
-125.9282389776
 10
436.2239631903
 20
-128.4049771344
 10
435.7495495432
 20
-130.9269026673
 10
435.1433899222
 20
-133.4822571955
 10
434.4083105233
 20
-136.0591264765
 10
433.5477386258
 20
-138.6454959562
 10
432.5656866133
 20
-141.2293067861
 10
431.4667332656
 20
-143.7985120475
 10
430.2560024105
 20
-146.3411329193
 10
428.9391390341
 20
-148.8453145294
 10
427.5222829614
 20
-151.2993812272
 10
426.0120402294
 20
-153.6918910208
 10
424.4154522869
 20
-156.0116889251
 10
422.739963164
 20
-158.2479589716
 10
420.9933847642
 20
-160.3902746368
 10
419.1838604425
 20
-162.4286474563
 10
417.3198270365
 20
-164.3535735949
 10
415.4099755304
 20
-166.1560781586
 10
413.4632105335
 20
-167.8277570388
 10
411.4886087629
 20
-169.3608160971
 10
409.4953767237
 20
-170.7481075043
 10
408.8359535341
 20
-171.1722671923
  0
ARC
  5
120
330
1F
100
AcDbEntity
  8
0
  6
Continuous
 62
     7
370
    25
100
AcDbCircle
 10
394.2176110165
 20
-160.6972205377
 30
0.0
 40
15.29107999353561
100
AcDbArc
 50
240.7432553716
 51
272.3175654924
  0
SPLINE
  5
121
330
1F
100
AcDbEntity
  8
0
  6
Continuous
 62
     7
370
    25
100
AcDbSpline
210
0.0
220
0.0
230
1.0
 70
     8
 71
     3
 72
    12
 73
     8
 74
     0
 42
0.00000001
 43
0.00000001
 40
0.0
 40
0.0
 40
0.0
 40
0.0
 40
0.2096394659254125
 40
0.4254106868226
 40
0.6350355203143363
 40
0.8506408677437625
 40
1.0
 40
1.0
 40
1.0
 40
1.0
 10
396.8862060658243
 20
-165.8601022288891
 30
0.0
 10
396.627167877061
 20
-166.0221716668831
 30
0.0
 10
396.1015148789072
 20
-166.3510509197739
 30
0.0
 10
395.5111879197594
 20
-166.8955486615188
 30
0.0
 10
395.0902035191582
 20
-167.4685610311919
 30
0.0
 10
394.8606142776335
 20
-167.9978352179659
 30
0.0
 10
394.8572598730807
 20
-168.3370509043347
 30
0.0
 10
394.8558871067402
 20
-168.4758725250233
 30
0.0
  0
SPLINE
  5
122
330
1F
100
AcDbEntity
  8
0
  6
Continuous
 62
     7
370
    25
100
AcDbSpline
210
0.0
220
0.0
230
1.0
 70
     8
 71
     3
 72
    21
 73
    17
 74
     0
 42
0.00000001
 43
0.00000001
 40
0.0
 40
0.0
 40
0.0
 40
0.0
 40
0.0414521282956251
 40
0.1123384289070073
 40
0.1852957188713685
 40
0.2558588716114539
 40
0.3285207064823447
 40
0.3982008109557548
 40
0.4699083638728926
 40
0.5395316993697242
 40
0.6111271995280586
 40
0.6815968685880549
 40
0.7540819743779478
 40
0.8249928684149448
 40
0.8979954193060865
 40
1.0
 40
1.0
 40
1.0
 40
1.0
 10
408.8113281933149
 20
-168.4758596505781
 30
0.0
 10
408.8145427893298
 20
-168.328705268522
 30
0.0
 10
408.8232545896816
 20
-167.9299056708494
 30
0.0
 10
408.6166078204312
 20
-167.2833478784689
 30
0.0
 10
408.2183362396074
 20
-166.5782221018615
 30
0.0
 10
407.624241343475
 20
-165.9372939870533
 30
0.0
 10
406.8772826443948
 20
-165.3964205347175
 30
0.0
 10
405.983820363156
 20
-164.9607830392497
 30
0.0
 10
404.98889604399
 20
-164.6480098842896
 30
0.0
 10
403.8990319514064
 20
-164.4556348432135
 30
0.0
 10
402.7594541601865
 20
-164.3865107417036
 30
0.0
 10
401.579855949667
 20
-164.4363389428105
 30
0.0
 10
400.4096529835558
 20
-164.5976224327464
 30
0.0
 10
399.2687379711121
 20
-164.8644486207434
 30
0.0
 10
398.0405701624323
 20
-165.2644589047052
 30
0.0
 10
397.3112798819236
 20
-165.6407672880425
 30
0.0
 10
396.8862060658243
 20
-165.8601022288891
 30
0.0
  0
LWPOLYLINE
  5
123
330
1F
100
AcDbEntity
  8
0
  6
Continuous
 62
     7
370
    25
100
AcDbPolyline
 90
       38
 70
   128
 43
0.0
 10
396.8862060658
 20
-178.1082144072
 10
397.7939150597
 20
-177.6664081712
 10
398.8179061412
 20
-177.3195149085
 10
399.9287209512
 20
-177.0775141067
 10
401.0944033701
 20
-176.9473676884
 10
402.2814188371
 20
-176.9328197288
 10
403.4556190784
 20
-177.0342887465
 10
404.5832244909
 20
-177.2488556624
 10
405.63179592
 20
-177.5703477771
 10
406.5711678746
 20
-177.9895163477
 10
407.3743163341
 20
-178.4943026578
 10
408.0181361795
 20
-179.0701849241
 10
408.484105886
 20
-179.7005960624
 10
408.7588203537
 20
-180.3674002921
 10
408.8343765474
 20
-181.0514148694
 10
408.7086008529
 20
-181.7329619405
 10
408.3851116082
 20
-182.3924346368
 10
407.8732150096
 20
-183.0108611298
 10
407.1876373904
 20
-183.5704504151
 10
406.3481015705
 20
-184.0551041278
 10
405.3787594668
 20
-184.450879663
 10
404.3074972868
 20
-184.7463912792
 10
403.1651332929
 20
-184.9331376452
 10
401.9845312175
 20
-185.0057464081
 10
400.7996548326
 20
-184.9621287459
 10
399.6445908745
 20
-184.8035394594
 10
398.5525684304
 20
-184.5345408736
 10
397.5550029976
 20
-184.162871588
 10
396.6805927175
 20
-183.6992238514
 10
395.9544927817
 20
-183.1569359649
 10
395.3975917635
 20
-182.5516085637
 10
395.025910691
 20
-181.900655815
 10
394.8501421522
 20
-181.2228044441
 10
394.8753426878
 20
-180.537555001
 10
395.1007873243
 20
-179.8646208643
 10
395.5199904299
 20
-179.2233611241
 10
396.1208922946
 20
-178.6322236555
 10
396.8862060658
 20
-178.1082144072
  0
LWPOLYLINE
  5
124
330
1F
100
AcDbEntity
  8
0
  6
Continuous
 62
     7
370
    25
100
AcDbPolyline
 90
       33
 70
   128
 43
0.0
 10
398.3004196282
 20
-178.924622519
 10
399.058102369
 20
-178.5656568478
 10
399.9225363723
 20
-178.2989212907
 10
400.860501924
 20
-178.1346663457
 10
401.8359535341
 20
-178.0792042381
 10
402.8114051442
 20
-178.1346663457
 10
403.749370696
 20
-178.2989212907
 10
404.6138046992
 20
-178.5656568478
 10
405.3714874401
 20
-178.924622519
 10
405.9933015956
 20
-179.3620234549
 10
406.4553511967
 20
-179.8610505829
 10
406.7398799361
 20
-180.4025265703
 10
406.8359535341
 20
-180.9656427986
 10
406.7398799361
 20
-181.5287590268
 10
406.4553511967
 20
-182.0702350142
 10
405.9933015956
 20
-182.5692621422
 10
405.3714874401
 20
-183.0066630781
 10
404.6138046992
 20
-183.3656287493
 10
403.749370696
 20
-183.6323643064
 10
402.8114051442
 20
-183.7966192514
 10
401.8359535341
 20
-183.852081359
 10
400.860501924
 20
-183.7966192514
 10
399.9225363723
 20
-183.6323643064
 10
399.058102369
 20
-183.3656287493
 10
398.3004196282
 20
-183.0066630781
 10
397.6786054726
 20
-182.5692621422
 10
397.2165558716
 20
-182.0702350142
 10
396.9320271321
 20
-181.5287590268
 10
396.8359535341
 20
-180.9656427986
 10
396.9320271321
 20
-180.4025265703
 10
397.2165558716
 20
-179.8610505829
 10
397.6786054726
 20
-179.3620234549
 10
398.3004196282
 20
-178.924622519
  0
LWPOLYLINE
  5
125
330
1F
100
AcDbEntity
  8
0
  6
Continuous
 62
     1
370
    25
100
AcDbPolyline
 90
       62
 70
   128
 43
0.0
 10
390.6577292176
 20
-38.4984296703
 10
391.4955892036
 20
-39.1408789636
 10
393.2102305171
 20
-40.6338847167
 10
394.8155671463
 20
-42.2855994243
 10
396.3076079716
 20
-44.0919166634
 10
397.6826435442
 20
-46.0483456448
 10
398.9372553091
 20
-48.1500223777
 10
400.0683241039
 20
-50.3917217627
 10
401.0730379132
 20
-52.7678705818
 10
401.9488988602
 20
-55.2725613547
 10
402.6937294166
 20
-57.8995670256
 10
403.3056778163
 20
-60.6423564443
 10
403.7832226591
 20
-63.4941106042
 10
404.1251766934
 20
-66.4477395952
 10
404.3306897674
 20
-69.4959002302
 10
404.3992509434
 20
-72.6310143016
 10
404.3306897674
 20
-75.8452874219
 10
404.1251766934
 20
-79.1307284016
 10
403.7832226591
 20
-82.4791691167
 10
403.3056778163
 20
-85.8822848161
 10
402.6937294166
 20
-89.331614818
 10
401.9488988602
 20
-92.8185835444
 10
401.0730379132
 20
-96.3345218417
 10
400.0683241039
 20
-99.8706885334
 10
398.9372553091
 20
-103.4182921518
 10
397.6826435442
 20
-106.9685127954
 10
396.3076079716
 20
-110.5125240563
 10
394.8155671463
 20
-114.0415149641
 10
393.2102305171
 20
-117.5467118914
 10
391.4955892036
 20
-121.0194003663
 10
389.6759060744
 20
-124.450946738
 10
387.7557051484
 20
-127.8328196418
 10
385.7397603477
 20
-131.1566112086
 10
383.6330836287
 20
-134.4140579688
 10
381.4409125216
 20
-137.5970613967
 10
379.1686971092
 20
-140.6977080442
 10
376.8220864771
 20
-143.7082892151
 10
374.4069146691
 20
-146.6213201304
 10
371.9291861827
 20
-149.4295585361
 10
369.3950610413
 20
-152.1260227092
 10
366.8108394795
 20
-154.7040088147
 10
364.1829462791
 20
-157.1571075732
 10
361.5179147967
 20
-159.4792201945
 10
358.8223707204
 20
-161.6645735408
 10
356.1030155977
 20
-163.7077344794
 10
353.3666101737
 20
-165.6036233902
 10
350.6199575835
 20
-167.3475267947
 10
347.8698864382
 20
-168.9351090742
 10
345.123233848
 20
-170.3624232491
 10
342.3868284241
 20
-171.6259207914
 10
339.6674733013
 20
-172.7224604472
 10
336.9719292251
 20
-173.649316046
 10
334.3068977427
 20
-174.4041832789
 10
331.6790045423
 20
-174.985185427
 10
329.0947829804
 20
-175.3908780274
 10
326.5606578391
 20
-175.6202524642
 10
324.0829293527
 20
-175.6727384767
 10
321.6677575446
 20
-175.5482055762
 10
319.3211469125
 20
-175.2469633712
 10
317.0489315001
 20
-174.7697607973
 10
314.8567603931
 20
-174.1177842552
 10
312.9466043283
 20
-173.3785216753
  0
ARC
  5
126
330
1F
100
AcDbEntity
  8
0
  6
Continuous
 62
     1
370
    25
100
AcDbCircle
 10
405.3692338041
 20
-136.8708062102
 30
0.0
 40
100.9706463780684
100
AcDbArc
 50
129.9697525748
 51
170.0356239579
  0
ARC
  5
127
330
1F
100
AcDbEntity
  8
0
  6
Continuous
 62
     1
370
    25
100
AcDbCircle
 10
406.6878913263
 20
-137.6320509942
 30
0.0
 40
100.19367090351
100
AcDbArc
 50
131.8230452629
 51
168.1823312698
  0
ENDSEC
  0
SECTION
  2
OBJECTS
  0
DICTIONARY
  5
C
330
0
100
AcDbDictionary
281
     1
  3
ACAD_GROUP
350
D
  3
ACAD_LAYOUT
350
1A
  3
ACAD_MLINESTYLE
350
17
  3
ACAD_PLOTSETTINGS
350
19
  3
ACAD_PLOTSTYLENAME
350
E
  3
ACAD_SCALELIST
350
47
  3
DWGPROPS
350
128
  0
DICTIONARY
  5
D
102
{ACAD_REACTORS
330
C
102
}
330
C
100
AcDbDictionary
281
     1
  0
DICTIONARY
  5
1A
102
{ACAD_REACTORS
330
C
102
}
330
C
100
AcDbDictionary
281
     1
  3
Layout1
350
1E
  3
Layout2
350
26
  3
Model
350
22
  0
DICTIONARY
  5
17
102
{ACAD_REACTORS
330
C
102
}
330
C
100
AcDbDictionary
281
     1
  3
Standard
350
18
  0
DICTIONARY
  5
19
102
{ACAD_REACTORS
330
C
102
}
330
C
100
AcDbDictionary
281
     1
  0
ACDBDICTIONARYWDFLT
  5
E
102
{ACAD_REACTORS
330
C
102
}
330
C
100
AcDbDictionary
281
     1
  3
Normal
350
F
100
AcDbDictionaryWithDefault
340
F
  0
DICTIONARY
  5
47
102
{ACAD_REACTORS
330
C
102
}
330
C
100
AcDbDictionary
281
     1
  3
A0
350
48
  3
A1
350
49
  3
A2
350
4A
  3
A3
350
4B
  3
A4
350
4C
  3
A5
350
4D
  3
A6
350
4E
  3
A7
350
4F
  3
A8
350
50
  3
A9
350
51
  3
B0
350
52
  3
B1
350
53
  3
B2
350
54
  3
B3
350
55
  3
B4
350
56
  3
B5
350
57
  3
B6
350
58
  3
B7
350
59
  3
B8
350
5A
  3
B9
350
5B
  3
C0
350
5C
  3
C1
350
5D
  3
C2
350
5E
  3
C3
350
5F
  3
C4
350
60
  3
C5
350
61
  3
C6
350
62
  3
C7
350
63
  3
C8
350
64
  3
C9
350
65
  3
D0
350
66
  3
D1
350
67
  3
D2
350
68
  0
XRECORD
  5
128
102
{ACAD_REACTORS
330
C
102
}
330
C
100
AcDbXrecord
280
     1
  1
DWGPROPS COOKIE
  2

  3

  4

  6

  7

  8
b.kav
  9

300
=
301
=
302
=
303
=
304
=
305
=
306
=
307
=
308
=
309
=
 40
0.0
 41
2460346.545812813
 42
2460346.545812998
  1

 90
        0
  0
LAYOUT
  5
1E
102
{ACAD_REACTORS
330
1A
102
}
330
1A
100
AcDbPlotSettings
  1

  2
none_device
  4

  6

 40
0.0
 41
0.0
 42
0.0
 43
0.0
 44
0.0
 45
0.0
 46
0.0
 47
0.0
 48
0.0
 49
0.0
140
0.0
141
0.0
142
1.0
143
1.0
 70
   688
 72
     1
 73
     0
 74
     5
  7

 75
    16
147
1.0
148
0.0
149
0.0
100
AcDbLayout
  1
Layout1
 70
     1
 71
     1
 10
0.0
 20
0.0
 11
420.0
 21
297.0
 12
0.0
 22
0.0
 32
0.0
 14
1.0000000000E+20
 24
1.0000000000E+20
 34
1.0000000000E+20
 15
-1.0000000000E+20
 25
-1.0000000000E+20
 35
-1.0000000000E+20
146
0.0
 13
0.0
 23
0.0
 33
0.0
 16
1.0
 26
0.0
 36
0.0
 17
0.0
 27
1.0
 37
0.0
 76
     0
330
1B
  0
LAYOUT
  5
26
102
{ACAD_REACTORS
330
1A
102
}
330
1A
100
AcDbPlotSettings
  1

  2
none_device
  4

  6

 40
0.0
 41
0.0
 42
0.0
 43
0.0
 44
0.0
 45
0.0
 46
0.0
 47
0.0
 48
0.0
 49
0.0
140
0.0
141
0.0
142
1.0
143
1.0
 70
   688
 72
     1
 73
     0
 74
     5
  7

 75
    16
147
1.0
148
0.0
149
0.0
100
AcDbLayout
  1
Layout2
 70
     1
 71
     2
 10
0.0
 20
0.0
 11
0.0
 21
0.0
 12
0.0
 22
0.0
 32
0.0
 14
0.0
 24
0.0
 34
0.0
 15
0.0
 25
0.0
 35
0.0
146
0.0
 13
0.0
 23
0.0
 33
0.0
 16
1.0
 26
0.0
 36
0.0
 17
0.0
 27
1.0
 37
0.0
 76
     0
330
23
  0
LAYOUT
  5
22
102
{ACAD_REACTORS
330
1A
102
}
330
1A
100
AcDbPlotSettings
  1

  2
none_device
  4
Letter_(8.50_x_11.00_Inches)
  6

 40
6.35
 41
6.35
 42
6.35000508
 43
6.35000508
 44
215.9
 45
279.4
 46
0.0
 47
0.0
 48
0.0
 49
0.0
140
0.0
141
0.0
142
1.0
143
1.0
 70
  1712
 72
     1
 73
     0
 74
     0
  7

 75
     0
147
1.0
148
0.0
149
0.0
100
AcDbLayout
  1
Model
 70
     1
 71
     0
 10
0.0
 20
0.0
 11
279.4
 21
215.9
 12
0.0
 22
0.0
 32
0.0
 14
0.0
 24
0.0
 34
0.0
 15
279.4
 25
215.9
 35
0.0
146
0.0
 13
0.0
 23
0.0
 33
0.0
 16
1.0
 26
0.0
 36
0.0
 17
0.0
 27
1.0
 37
0.0
 76
     0
330
1F
331
29
  0
MLINESTYLE
  5
18
102
{ACAD_REACTORS
330
17
102
}
330
17
100
AcDbMlineStyle
  2
Standard
 70
     0
  3

 62
   256
 51
90.0
 52
90.0
 71
     2
 49
0.5
 62
   256
  6
BYLAYER
 49
-0.5
 62
   256
  6
BYLAYER
  0
ACDBPLACEHOLDER
  5
F
102
{ACAD_REACTORS
330
E
102
}
330
E
  0
SCALE
  5
48
102
{ACAD_REACTORS
330
47
102
}
330
47
100
AcDbScale
 70
     0
300
1:1
140
1.0
141
1.0
290
     1
  0
SCALE
  5
49
102
{ACAD_REACTORS
330
47
102
}
330
47
100
AcDbScale
 70
     0
300
1:2
140
1.0
141
2.0
290
     0
  0
SCALE
  5
4A
102
{ACAD_REACTORS
330
47
102
}
330
47
100
AcDbScale
 70
     0
300
1:4
140
1.0
141
4.0
290
     0
  0
SCALE
  5
4B
102
{ACAD_REACTORS
330
47
102
}
330
47
100
AcDbScale
 70
     0
300
1:5
140
1.0
141
5.0
290
     0
  0
SCALE
  5
4C
102
{ACAD_REACTORS
330
47
102
}
330
47
100
AcDbScale
 70
     0
300
1:8
140
1.0
141
8.0
290
     0
  0
SCALE
  5
4D
102
{ACAD_REACTORS
330
47
102
}
330
47
100
AcDbScale
 70
     0
300
1:10
140
1.0
141
10.0
290
     0
  0
SCALE
  5
4E
102
{ACAD_REACTORS
330
47
102
}
330
47
100
AcDbScale
 70
     0
300
1:16
140
1.0
141
16.0
290
     0
  0
SCALE
  5
4F
102
{ACAD_REACTORS
330
47
102
}
330
47
100
AcDbScale
 70
     0
300
1:20
140
1.0
141
20.0
290
     0
  0
SCALE
  5
50
102
{ACAD_REACTORS
330
47
102
}
330
47
100
AcDbScale
 70
     0
300
1:30
140
1.0
141
30.0
290
     0
  0
SCALE
  5
51
102
{ACAD_REACTORS
330
47
102
}
330
47
100
AcDbScale
 70
     0
300
1:40
140
1.0
141
40.0
290
     0
  0
SCALE
  5
52
102
{ACAD_REACTORS
330
47
102
}
330
47
100
AcDbScale
 70
     0
300
1:50
140
1.0
141
50.0
290
     0
  0
SCALE
  5
53
102
{ACAD_REACTORS
330
47
102
}
330
47
100
AcDbScale
 70
     0
300
1:100
140
1.0
141
100.0
290
     0
  0
SCALE
  5
54
102
{ACAD_REACTORS
330
47
102
}
330
47
100
AcDbScale
 70
     0
300
2:1
140
2.0
141
1.0
290
     0
  0
SCALE
  5
55
102
{ACAD_REACTORS
330
47
102
}
330
47
100
AcDbScale
 70
     0
300
4:1
140
4.0
141
1.0
290
     0
  0
SCALE
  5
56
102
{ACAD_REACTORS
330
47
102
}
330
47
100
AcDbScale
 70
     0
300
8:1
140
8.0
141
1.0
290
     0
  0
SCALE
  5
57
102
{ACAD_REACTORS
330
47
102
}
330
47
100
AcDbScale
 70
     0
300
10:1
140
10.0
141
1.0
290
     0
  0
SCALE
  5
58
102
{ACAD_REACTORS
330
47
102
}
330
47
100
AcDbScale
 70
     0
300
100:1
140
100.0
141
1.0
290
     0
  0
SCALE
  5
59
102
{ACAD_REACTORS
330
47
102
}
330
47
100
AcDbScale
 70
     0
300
1/128" = 1'-0"
140
0.0078125
141
12.0
290
     0
  0
SCALE
  5
5A
102
{ACAD_REACTORS
330
47
102
}
330
47
100
AcDbScale
 70
     0
300
1/64" = 1'-0"
140
0.015625
141
12.0
290
     0
  0
SCALE
  5
5B
102
{ACAD_REACTORS
330
47
102
}
330
47
100
AcDbScale
 70
     0
300
1/32" = 1'-0"
140
0.03125
141
12.0
290
     0
  0
SCALE
  5
5C
102
{ACAD_REACTORS
330
47
102
}
330
47
100
AcDbScale
 70
     0
300
1/16" = 1'-0"
140
0.0625
141
12.0
290
     0
  0
SCALE
  5
5D
102
{ACAD_REACTORS
330
47
102
}
330
47
100
AcDbScale
 70
     0
300
3/32" = 1'-0"
140
0.09375
141
12.0
290
     0
  0
SCALE
  5
5E
102
{ACAD_REACTORS
330
47
102
}
330
47
100
AcDbScale
 70
     0
300
1/8" = 1'-0"
140
0.125
141
12.0
290
     0
  0
SCALE
  5
5F
102
{ACAD_REACTORS
330
47
102
}
330
47
100
AcDbScale
 70
     0
300
3/16" = 1'-0"
140
0.1875
141
12.0
290
     0
  0
SCALE
  5
60
102
{ACAD_REACTORS
330
47
102
}
330
47
100
AcDbScale
 70
     0
300
1/4" = 1'-0"
140
0.25
141
12.0
290
     0
  0
SCALE
  5
61
102
{ACAD_REACTORS
330
47
102
}
330
47
100
AcDbScale
 70
     0
300
3/8" = 1'-0"
140
0.375
141
12.0
290
     0
  0
SCALE
  5
62
102
{ACAD_REACTORS
330
47
102
}
330
47
100
AcDbScale
 70
     0
300
1/2" = 1'-0"
140
0.5
141
12.0
290
     0
  0
SCALE
  5
63
102
{ACAD_REACTORS
330
47
102
}
330
47
100
AcDbScale
 70
     0
300
3/4" = 1'-0"
140
0.75
141
12.0
290
     0
  0
SCALE
  5
64
102
{ACAD_REACTORS
330
47
102
}
330
47
100
AcDbScale
 70
     0
300
1" = 1'-0"
140
1.0
141
12.0
290
     0
  0
SCALE
  5
65
102
{ACAD_REACTORS
330
47
102
}
330
47
100
AcDbScale
 70
     0
300
1-1/2" = 1'-0"
140
1.5
141
12.0
290
     0
  0
SCALE
  5
66
102
{ACAD_REACTORS
330
47
102
}
330
47
100
AcDbScale
 70
     0
300
3" = 1'-0"
140
3.0
141
12.0
290
     0
  0
SCALE
  5
67
102
{ACAD_REACTORS
330
47
102
}
330
47
100
AcDbScale
 70
     0
300
6" = 1'-0"
140
6.0
141
12.0
290
     0
  0
SCALE
  5
68
102
{ACAD_REACTORS
330
47
102
}
330
47
100
AcDbScale
 70
     0
300
1'-0" = 1'-0"
140
12.0
141
12.0
290
     0
  0
ENDSEC
  0
EOF
